Slipknot - Eyeless Chords & Tabs

 

Eyeless Chords & Tabs

Slipknot Chords & Tabs

Version: 4 Type: Bass Tab 0 ratings
1 star 2 stars 3 stars 4 stars 5 stars
comments

Eyeless Bass Tab

Slipknot
Eyeless
Vol. 3 (The Subliminal Verses)
tabbed by modus operendi
jamie cushion

intro
G:--------------------------------------------------| x5
D:--------------------------------------------------|
A:--------------------------------------------------|
E:---------5----4------------5-------4--------------|
B:-1-1-1-4----4----3-1-1--1----1-2------------------|

G:--------------------------------------------------| x1
D:--------------------------------------------------|
A:--------------------------------------------------|
E:---------5----4-----------------------------------|
B:-1-1-1-4----4----3-1-1----------------------------|

chorus
G:--------------------------------------------------| x4
D:--------------------------------------------------|
A:--------------------------------------------------|
E:--------------------------------------------------|
B:-1-1-1-1-4-1-3h4-1-1-6h7-r-1-7h9------------------|

verse
chorus
verse
chorus

fill 1
G:--------------------------------------------------| x8
D:--------------------------------------------------|
A:--------------------------------------------------|
E:--------------------------------------------------|
B:-13-13-13-r-13-13-13-13---------------------------|

intro
chorus
verse
fill 1
[ Tab from: http://www.guitartabs.cc/tabs/s/slipknot/eyeless_btab_ver_4.html ]
fill 2
G:--------------------------------------------------| x12
D:--------------------------------------------------|
A:--------------------------------------------------|
E:--------------------------------------------------|
B:-1-1-1-4^----1-1-2-1-1-2--------------------------|

fill 3
G:--------------------------------------------------| x6
D:--------------------------------------------------|
A:--------------------------------------------------|
E:--------------------------------------------------|
B:-1-----------5-----------2----3-------------------|

fill 2 x8
break
fill 2 x8


SLIPKNOT
LEFT BEHIND

down tune your bass to B E A D to play this song

Intro
D--------------    D---------------|
A-------------- x7 A---------------|
E--------------    E---------------|
B-0-0---0-0-0--    B-0/12-12-12-12-|

Verse
D-------------------------------|
A--------3--------------3-------|x4
E----2-------2------2-------23--|
B-100-000-000-000100-000-000----|

Chorus
D-----------------------------------------------------|
A------------------------------------33----33---3-----| x4
E-1-1-1-1-1-1-1-1-----------------33----33----33------|
B-----------------1-1-1-1-1-1-1-1---------------------|

Intro after chorus

Verse again

Pre-chorus
D--------------------|
A----33----33---3----|
E-33----33----33-----|
B--------------------|

Chorus

Interlude (its kinda like playing the chorus backwards)

D--------------------------------------|
A----33----33----3---------------------|
E-33----33----33---11111111------------|
B---------------------------11111111---|

Pre-chorus again
Chorus again
Intro again
End
Comments