Slipknot - Everything Ends Chords & Tabs

 

Everything Ends Chords & Tabs

Slipknot Chords & Tabs

Version: 2 Type: Tab 0 ratings
1 star 2 stars 3 stars 4 stars 5 stars
comments

Everything Ends Tab

   
Everything Ends-Slipknot
Iowa

Drop A:
A E A D F# B

( )=harmonics

you are wrong......

Riff A x2
e-----------------------------------------------------------------
b-----------------------------------------------------------------
g-----------------------------------------------------------------
d-----------------------------------------------------------------
a-----------------------------------------------------------------
D-1010101010101010-9-9-9-9-9-9-9-9-3-3-3-3-3-3-3-3-6-6-6-6-6-6-6-6

e-----------------------------------------------------------------
b-----------------------------------------------------------------
g-----------------------------------------------------------------
d-----------------------------------------------------------------
a-----------------------------------------------------------------
D-5-5-5-5-5-5-5-5-5-5-5-5-5-5-3-3-1-1-1-1-1-1-1-1-1-1-1-1-1-1-1-1-

harmonic leads (w/ wah as filter) over Riff a 2nd time

e-----------------------------------------------------------------
b-----------------------------------------------------------------
g---(3)---(2.3)-(3)---(2.3)-(3)--(2.3)-(3)-----(3)-(3)-(3)-(3)----
d-----------------------------------------------------------------
a-----------------------------------------------------------------
d-----------------------------------------------------------------

Interlude: Riff C x2 

e-----------------------------------------------------------------
b-----------------------------------------------------------------
g-----------------------------------------------------------------
d-----------------------------------------------------------------
a-------------------------------------------------1-1--1----------
d-0-1-4-1-0--0-1-4-1-0--0--4~~-0-6--0--0-1-4-1-0--1-1--1----------

Riff D x2
e-----------------------------------------------------------------
b-----------------------------------------------------------------
g-----------------------------------------------------------------
d-----------------------------------------------------------------
a--------------------------4-----6----------------1-1--1----------
d-0-1-4-1-0--0-1-4-1-0--0--4--0--6--0--0-1-4-1-0--1-1--1----------

Verses: Fig 1. x2
[ Tab from: http://www.guitartabs.cc/tabs/s/slipknot/everything_ends_tab_ver_2.html ]
pm
e-----------------------------------------------------------------
b-----------------------------------------------------------------
g-----------------------------------------------------------------
d-----------------------------------------------------------------
a-0-1-2-0-0-1-2-----1-2-----1-2---0-1-2-0-0-1-2-----1-2-----1-2---
d-0-1-2-0-0-1-2-----1-2-----1-2---0-1-2-0-0-1-2-----1-2-----1-2---

Fig 1 w/o pm x2

Interlude:

e-----------------------------------------------------------------
b-----------------------------------------------------------------
g-----------------------------------------------------------------
d-----------------------------------------------------------------
a-----------------------------------------------------------------
d-0-0-0-6---0-6--0-0-0-2-2-2-1-1-0-0-0-6---0-6--0-0-0-2-2-2-1-1---

Chorus: Riff E

e-----------------------------------------------------------------
b-----------------------------------------------------------------
g-----------------------------------------------------------------
d-----------------------------------------------------------------
a-----------------------------------------------------------------
d-1010101010101010-9-9-9-9-9-9-9--3-3-3-3-3-3-3-3-6-6-6-6-6-6-6-6-

e-----------------------------------------------------------------
b----8-------------------------------4----------------------------
g----7-------------------------------3----------------------------
d----5-------------------------------1----------------------------
a----5-------------------------------1----------------------------
d-5--5----------------------3--3--1--1----------------------1/----

Interlude:

gtr 1
e------------------------------     ------------------------------
b------------------------------     ------------------------------
g------------------------------     ------------------------------
d-------2---------------------- x3  ------------------------------
a-4--3--0--1--0----------------     -0-3(p.h)~~~~-----------------
d-4--3-----1--0--4(p.h)~3(p.h)~     -0-----------3(ph.)~~~~----x--

gtr2.
e------------------------------     ------------------------------
b------------------------------     ------------------------------
g------------------------------     ------------------------------
d-------2---------------------- x3  ------------------------------
a-4--3--0--1--0----------------     -0----------------------------
d-4--3-----1--0--4p3---4p3-x---     -0----------------------------

Fig 4.

e-----------------------------------------------------------------
b-----------------------------------------------------------------
g-----------------------------------------------------------------
d-------2------------------------2--------------------------------
a-4--3--0--1--0--2--x-3--x-4--3--0--1--0--2--x-3--x---------------
d-4--3-----1--0--2--x-3--x-4-3------1--0--2--x-3--x---------------

thatís all
just piece it together

trevor jones
timmy91199@yahoo.ca
Comments