Slipknot - Eeyore Chords & Tabs

 

Eeyore Chords & Tabs

Slipknot Chords & Tabs

Version: 5 Type: Tab 0 ratings
1 star 2 stars 3 stars 4 stars 5 stars
comments

Eeyore Tab

   
Artist: Slipknot
song: "Eeyore"
Album: Slipknot
Tabbed by: Gary666
What you need to know for this song:

()= natural harmonic
P= Pull off
/=Slide
x= mute

This song is done in C# (tuned down 1 1/2 step)
with the low C# string dropped to B. If you don't have a baritone, use
heavy gauge strings, from .11 and up.
This song is extremely fast paced, but is a good way to build up you
picking arm if your'e a beginner. Not to mention that it's a killer song.
Intro:
C#----------------------------|
G#----------------------------|
E-----------------------------|
B--(15)(15)(15)(15)(15)(15)15-|
F#-(15)(15)(15)(15)(15)(15)15-
B--(15)(15)(15)(15)(15)(15)15-
You repeat this several times. Not sure how many.

CRUSHING TIME!!!

Chorus
-------------------|
-------------------|
-------------------|Repeat
7-77-7-77-3-33-2-22|
7-77-7-77-3-33-2-22|
7-77-7-77-3-33-2-22|
[ Tab from: http://www.guitartabs.cc/tabs/s/slipknot/eeyore_tab_ver_5.html ]
Fast Part:
------------------------------------------------------------------------------------|
------------------------------------------------------------------------------------|
------------------------------------------------------------------------------------|
------------------------------------------------------------------------------------|
------------------------------------------------------------------------------------|
7-7-7-7-7-7-7-7-7-7-7-7-7-7-7-7-7-7-7-7-7-7-3-3-3-3-3-3-3-3-3-3-2-2-2-2-2-2-2-2-2-2-|
I honestly don't know how many times Mick and Jim play each note. Use your judgement.
After second time around, second guitar joins in same part


Verse 1
--------------------------------------------------------------|
--------------------------------------------------------------|
--------------------------------------------------------------|
3/2-0-0-0-0-0-0-3/2-3/2-3/2/3/2-0-0-0-0-0-0-------------------|
3/2-0-0-0-0-0-0-3/2-3/2-3/2/3/2-0-0-0-0-0-0-1-1-1-3-3-3-3-1-0-|
3/2-0-0-0-0-0-0-3/2-3/2-3/2/3/2-0-0-0-0-0-0-------------------|
    x x x x x x                 x x x x x x
Verse 2
-----------------------------------------|
-----------------------------------------|
--------------------------------7-----6-6|
3p0----3p0-3p0-3-0-3-0------0-0-7-0-0-6-6|
3p0----3p0-3p0-3-0-3-0------0-0-5-0-0-4-4|
3p0----3p0-3p0-3-0-3-0------0-0---0-0----|

In order it goes like this

Intro
Chorus
Fast Part
Verse 1
Verse 2
Chorus
Intro (Outro?)

Just strike an open B power chord when you end it.
That's it. Easy, huh?
Comments