Slipknot - Duality Chords & Tabs

 

Duality Chords & Tabs

Slipknot Chords & Tabs

Version: 8 Type: Tab 0 ratings
1 star 2 stars 3 stars 4 stars 5 stars
comments

Duality Tab

   
Tabber:Gary Finfrock OrdinaryAveragePsycho.com
Tuning: Dropped B
Tabbed on a baritone guitar for live performance by one guitarist
Key:
/ = slide up
\ = slide down
. = Palm mute
* = pinch harmonic
b = bend
~ = hold note
h= hammer

Intro x2 very low volume with Piano(or bass)
|------------------------------------|
|------------------------------------|
|------------------------------------|
|------------------------------------|
|------------------------------------|
|--00000000000000003-333336-1-1111---|

2x full distortion   -Riff A
|----------------------------------|
|----------------------------------|
|----------------------------------|
|--00000000000000003-333336-1-113h1|
|--00000000000000003-333336-1-113h1|
|--00000000000000003-333336-1-113h1|

Pre-verse x2
|-----------------------------------------------------------------------|
|-----------------------------------------------------------------------|
|-----------------------------------------------------------------------|
|--0-0-0--0-0--0-0-0--0-1-0-3-------0-0-0--0-0--0-0-0--0-1-0-6----------|
|--0-0-0--0-0--0-0-0--0-1-0-3-3*b---0-0-0--0-0--0-0-0--0-1-0-6----------|
|--0-0-0--0-0--0-0-0--0-1-0-3-------0-0-0--0-0--0-0-0--0-1-0-6--5*------|
pm.........................         ........................

*RIFF b**
Verse(tremolo pick whole verse)x8 		4-8 also has this varation
|----------------------------------------------------------------------|
|----------------------------------------------------------------------|
|----------------------------------------------------------------------|
|------------------------------------------|  |-777---------777--------|
|-0000003333----00-------------------------|  |----777888------777888--|
|-----------5555--333611111111-------------|  |----------10----------9-|
pm.........................................

Pre-chorus x1
|---------------------------------------|
|---------------------------------------|
|---------------------------------------|
|--3-3-33--3-3-3-33--3-3-3-33--3-3-3-11-|
|--3-3-33--3-3-3-33--3-3-3-33--3-3-3-11-|
|--3-3-33--3-3-3-33--3-3-3-33--3-3-3-11-|
pm..................................
I push my fingers in to my...

Chorus  - Riff A  2x

Pre-verse Riff B 1 x then..
		|------------------------|
		|------------------------|
		|------------------------|
		|---------------3-5-1-0--|
		|-0000003333----3-5-1-0--|
		|-----------5/--3-5-1-0--|

verse x4  Riff b

Pre-chorus x1
|---------------------------------------|
|---------------------------------------|
|---------------------------------------|
|--3-3-33--3-3-3-33--3-3-3-33--3-3-3-11-|
|--3-3-33--3-3-3-33--3-3-3-33--3-3-3-11-|
|--3-3-33--3-3-3-33--3-3-3-33--3-3-3-11-|
pm..................................

Chorus RIFF a  x4

	Chorus Guitar 2 on 3rd and 4th times
	|----------------------------|
	|----------------------------|
	|----------------------------|
	|----------------------------|
	|---5/8-8/10-10/12H13P12-----|
	|----------------------------|
[ Tab from: http://www.guitartabs.cc/tabs/s/slipknot/duality_tab_ver_8.html ]
Bridge x2
|-----------------------------------------------------------------------|
|-----------------------------------------------------------------------|
|-----------------------------------------------------------------------|
|--0-0-0--0-0--0-0-0--0-1-0-3-------0-0-0--0-0--0-0-0--0-1-0-6----------|
|--0-0-0--0-0--0-0-0--0-1-0-3-3*b---0-0-0--0-0--0-0-0--0-1-0-6----------|
|--0-0-0--0-0--0-0-0--0-1-0-3-------0-0-0--0-0--0-0-0--0-1-0-6--5*------|
pm.........................         ........................--|

Bridge x4  'all I've got is insane'
|-----------------------------------------------------------------------|
|-----------------------------------------------------------------------|
|-----------------------------------------------------------------------|
|--1-1-1--1-1--1-1-1--0-1-0-3-------1-1-1--1-1--1-1-1--0-1-0-6----------|
|--1-1-1--1-1--1-1-1--0-1-0-3-3*b---1-1-1--1-1--1-1-1--0-1-0-6----------|
|--1-1-1--1-1--1-1-1--0-1-0-3-------1-1-1--1-1--1-1-1--0-1-0-6--5*------|
pm.........................         ........................--|

Pre-chorus x1

Fill 1 (add this on the end of the prechorus)
|-------------------------------------------------------------------|
|-------------------------------------------------------------------|
|-------------------------------------------------------------------|
|-------------------------------------------------------------------|
|-3-3-33--33-3-33--33-3-33--33-1-1-1-1-0003332225553200055500033357-|
|-3-3-33--33-3-33--33-3-33--33-1-1-1-1-00033322255532------------57-|

Chorus x4
Chorus Guitar 2 on 2ND, 3rd and 4th times
	|----------------------------|
	|----------------------------|
	|----------------------------|
	|----------------------------|
	|---5/8-8/10-10/12H13P12-----|
	|----------------------------|


Outro palm and finger  muting totally silent in breaks
|---------------------------------------------------------------------------|
|---------------------------------------------------------------------------|
|---------------------------------------------------------------------------|
|--0-0-0--0000--0-0-0--0-1-0-3------0-0-0--0000--0-0-0--0-1-0-66531-111-----|
|--0-0-0--0000--0-0-0--0-1-0-3-3*B--0-0-0--0000--0-0-0--0-1-0-66531-111-----|
|--0-0-0--0000--0-0-0--0-1-0-3------0-0-0--0000--0-0-0--0-1-0-66531-111-----|
pm..............................................................

with palm muting but let it ring
|------------------------------------------------------------------------------|
|------------------------------------------------------------------------------|
|------------------------------------------------------------------------------|
|-0-0-0-0---0-0-0--0000--0-0-0--0-1-0-3------0-0-0--0000--0-0-0--0-1-0-6-------|
|-0-0-0-0---0-0-0--0000--0-0-0--0-1-0-3-3*b--0-0-0--0000--0-0-0--0-1-0-6-------|
|-0-0-0-0---0-0-0--0000--0-0-0--0-1-0-3------0-0-0--0000--0-0-0--0-1-0-6--5*b--|
.......................................         ...........................

with palm and finger muting. Totaly silent in breaks
|-----------------------------------------------------------------------------|
|-----------------------------------------------------------------------------|
|-----------------------------------------------------------------------------|
|-0-0-0-0---0-0-0--0000--0-0-0--0-1-0-3------0-0-0--0000--0-0-0--0-1-0-6------|
|-0-0-0-0---0-0-0--0000--0-0-0--0-1-0-3-3*b--0-0-0--0000--0-0-0--0-1-0-6------|
|-0-0-0-0---0-0-0--0000--0-0-0--0-1-0-3------0-0-0--0000--0-0-0--0-1-0-6-5*b--|

song order:
intro x4
pre-verse x2
verse x8
pre-chorus x1
chorus x2
pre-verse2 x1
verse x4
pre-chorus x1
chorus x4
bridge x6
pre-chorus x1
fill 1 x1
chorus x4
outro x3
Comments