Slipknot - Duality Chords & Tabs

 

Duality Chords & Tabs

Slipknot Chords & Tabs

Version: 3 Type: Bass Tab 0 ratings
1 star 2 stars 3 stars 4 stars 5 stars
comments

Duality Bass Tab

----------------------------------------------------------------------------
			     Duality - Slipknot
----------------------------------------------------------------------------

Tabbed By : Undaunted
e-mail: bassman13@hotmail.com

Tuning: 5-string, standard

~ = let ring
^ = bend
/ = slide to


Intro x2
G------------------------------------------------------|
D------------------------------------------------------|
A------------------------------------------------------|
E------------------------------------------------------|
B--0~-----3~-----6/1~----------------------------------|


Chorus x2
G------------------------------------------------------|
D------------------------------------------------------|
A------------------------------------------------------|
E------------------------------------------------------|
B--0--00000000000000-3--333333--6/111111---------------|

Break x2
G-------------------------------------------------------|
D-------------------------------------------------------|
A------------------------------------^------------------|
E------------------------------------3------------------|
B--0--0-0----0-0----0-0-0---0-1-0-3---------------------|

G-------------------------------------------------------|
D-------------------------------------------------------|
A-------------------------------------------------------|
E-------------------------------------------------------|
B--0--0-0----0-0----0-0-0---0-1-0-6/1-------------------|

(REST)

Verse x8    (it's got a bit of a swing to it, just listen)
G------------------------------------------------------|
D------------------------------------------------------|
A------------------------------------------------------|
E------------------------------------------------------|
B--7--7-7--10--5--5-5--7--3-3--5--1-1-0-0--------------|
[ Tab from: http://www.guitartabs.cc/tabs/s/slipknot/duality_btab_ver_3.html ]
Pre Chorus x1
G------------------------------------------------------|
D------------------------------------------------------|
A------------------------------------------------------|
E------------------------------------------------------|
B--3--3--3-3--3-3-3--3-3--3-3-3--3-3--3-3-2-2-0--------|

Chorus x2

(Rest)

Fill x1 (play hard)
G------------------------------------------------------|
D------------------------------------------------------|
A------------------------------------------------------|
E------------------------------------------------------|
B---3---5---1--0---------------------------------------|


Verse x 4

Prechorus x1

Chorus x4

Break x2

 Break  prt 2 x1
G------------------------------------------------------|
D------------------------------------------------------|
A------------------------------^-----------------------|
E------------------------------3-----------------------|
B--1-1-1--1-1---1-1-1--0-1-0-3-------------------------|

G------------------------------------------------------|
D------------------------------------------------------|
A------------------------------------------------------|
E------------------------------------------------------|
B--1-1-1--1-1---1-1-1--0-1--6/1------------------------|

Pre chorus x1

Pre Chorus prt 2   (not 100% on this part, but it sounds rite, if u have any corrections, post them)

G------------------------------------------------------|
D------------------------------------------------------|
A------------------------------------------------------|
E------------------------------------------------------|
B---3--5---2---6-6-7----3--5---2---6-6-7---------------|

Chorus x 4

Outro
G------------------------------------------------------|
D------------------------------------------------------|
A-----------------------------------^------------------|
E-----------------------------------3------------------|
B--0-0-0---0-0-00---0-0-0---0-1-0-3--------------------|

G------------------------------------------------------|
D------------------------------------------------------|
A------------------------------------------------------|
E------------------------------------------------------|
B--0-0-0---0-0-00---0-0-0---0-1-0-6/1------------------|
Comments