Slipknot - Despise Chords & Tabs

 

Despise Chords & Tabs

Slipknot Chords & Tabs

Version: 1 Type: Tab 0 ratings
1 star 2 stars 3 stars 4 stars 5 stars
comments

Despise Tab

   
Slipknot - Despise
Tabbed By: Sqweeky
EMail: Blindside831@aol.com

TUNING: B F# B E G# C# 
10' and 11's marked by * 
   

Intro 
C# ------------------------------- 
G# ------------------------------- 
E    ------------------------------- 
B   ---7/6--6--7/6------------- 
F#  ---6/5--5--6/5------------- 
B    ------------------------------- 

   Chorus 
C# ------------------------------- 
G# ------------------------------- 
E   ------------------------------- 
B   ---3-3-1-0-0-0-3-1------- 
F#  ---3-3-1-0-0-0-3-1------- 
B   ---3-3-1-0-0-0-3-1-------- 
[ Tab from: http://www.guitartabs.cc/tabs/s/slipknot/despise_tab.html ]
   Verse Guit. 1 
C# ---------------------------------- 
G# --15-15-15-15-15-15-15-- 
E    ---------------------------------- 
B    ---------------------------------- 
F#  ---------------------------------- 
B    ---------------------------------- 
  Verse Guit. 2 
C# ------------------------------- 
G# ------------------------------- 
E    ------------------------------- 
B   ---3-3-1-0-0-0-3-1------- 
F#  ---3-3-1-0-0-0-3-1------- 
B   ---3-3-1-0-0-0-3-1-------- 
P.M. ...................... 
  

Bridge 1 
C# ------------------------------- 
G# ------------------------------- 
E  -----11*------------------------- 
B    ---10*--------0-8-8-0-4-4-4-------------- 
F#  ---------------0-8-8-0-4-4-4---------- 
B    --------------0-8-8-0-4-4-4------------- 

   Bridge Part 2 
C# ------------------------------- 
G# ------------------------------- 
E    ------------------------------- 
B  -----4-4-4-4-4-4-0-0-0-7^-7-7-7-------------- 
F#  ----4-4-4-4-4-4-0-0-0-7^-7-7-7--------------- 
B    ---4-4-4-4-4-4-0-0-0-7^-7-7-7----------------------------- 

      Bridge part 3 
C# ------------------------------- 
G# ------------------------------- 
E    ------------------------------- 
B  -----3-1-0-3-1------------- 
F#  ----3-1-0-3-1-------------- 
B    ---3-1-0-3-1---------------
Comments