Slipknot - Before I Forget Chords & Tabs

 

Before I Forget Chords & Tabs

Slipknot Chords & Tabs

Version: 4 Type: Tab 0 ratings
1 star 2 stars 3 stars 4 stars 5 stars
comments

Before I Forget Tab

   
-----------------------------------------------------------------------------
			     Before I Forget - SLiPkNoT
-----------------------------------------------------------------------------
Tabbed by: Mudknotmetalhed
Email: mudknot624@aol.com
This tab is my first tab even though im really good in guitar and its perfect, 
seriously this is perfect i took 3 days hearing the song over and over and over and over and over 
over and over , so apreciate
Tuning: (B,F#,B,E,G#,C#)

Intro
|----------------------------------------------------------------------------|
|----------------------------------------------------------------------------|
|----------------------------------------------------------------------------|
|----------------------------------------------------------------------------|
|----------------------------------------------------------------------------|
|-3h2p0-3h2p0-3h2p0-3h2p0-3-2-----3h2p0-3h2p0-3h2p0-3h2p0--5-3-2--3x---------|


|----------------------------------------------------------------------------|
|----------------------------------------------------------------------------|
|----------------------------------------------------------------------------|
|----------------------------------------------------------------------------|
|---------------------------------------------------5-5--5-0-5-5--5-0--------|
|-3h2p0-3h2p0-3h2p0-3h2p0-3-2-------3h2p0-3h2p0-3h2-5-5--5-0-5-5--5-0---2x---|

Verse
|----------------------------------------------------------------------------|
|----------------------------------------------------------------------------|
|----------------------------------------------------------------------------|
|----------------------------------------------------------------------------|
|--2-2-2-2-3--2-2-2-3-----2-2-2-2-3---5-5-5-0--------------------------------|
|--2-2-2-2-3--2-2-2-3--3x-2-2-2-2-3---5-5-5-0----3x--------------------------|
pm * * * *    * * *       * * * *

Pre-Chorus
1st guitar
|----------------------------------------------------------------------------|
|----------------------------------------------------------------------------|
|----------------------------------------------------------------------------|
|-2-5-4-3--------------------------------------------------------------------|
|----------------------------------------------------------------------------|
|----------------------------------------------------------------------------|

2nd Guitar
|-------------15/16~~-------------9/10~~-------------15/16~~-----------------|
|----------------------------------------------------------------------------|
|----------------------------------------------------------------------------|
|----------------------------------------------------------------------------|
|--2-2--2-2------------2-2--2-2------------2-2--2-2--------------------------|
|--2-2--2-2------------2-2--2-2------------2-2--2-2--------------------------|
pm * *  * *            * *  * *            * *  * *
[ Tab from: http://www.guitartabs.cc/tabs/s/slipknot/before_i_forget_tab_ver_4.html ]
Chorus
|----------------------------------------------------------------------------|
|----------------------------------------------------------------------------|
|----------------------------------------------------------------------------|
|-2--0-2-5-00-5-0-8h7---------7-7-7h9p7-10-5-5-5-5-10h9p---------------------|
|-2--0-2-5-00-5-0-8h7---------7-7-7h9p7-10-5-5-5-5-10h9p---------------------|
|-2--0-2-5-00-5-0-8h7---3x----7-7-7h9p7-10-5-5-5-5-10h9p-----2x--------------|

(second part of intro)
Verse
Chorus 2x

Interlude (10 not 1,0)
|----------------------------------------------------------------------------|
|----------------------------------------------------------------------------|
|----------------------------------------------------------------------------|
|----------------------------------------------------------------------------|
|9-101010101010--9-101010101010--9-101010101010-9-10-12-10-2x----------------|
|----------------------------------------------------------------------------|

|----------------------------------------------------------------------------|
|----------------------------------------------------------------------------|
|----------------------------------------------------------------------------|
|-12-10-9-7-10-9-7-----------------------------------------------------------|
|------------------10--9-101010101010--9-9-10-10-12-10-----------------------|
|----------------------------------------------------------------------------|

|----------------------------------------------------------------------------|
|----------------------------------------------------------------------------|
|----------------------------------------------------------------------------|
|----------------------------------------------------------------------------|
|9-101010101010--9-101010101010--9-101010101010--12-10-9-12/-----------------|
|----------------------------------------------------------------------------|

1st Guitar
|----------------------------------------------------------------------------|
|----------------------------------------------------------------------------|
|----------------------------------------------------------------------------|
|7h9p-7h9p-7h9p/10h9p-7h9p--12x--10-9-10-9-7x-12-10-9-10---------------------|
|----------------------------------------------------------------------------|
|----------------------------------------------------------------------------|

2nd Guitar
|-----------------------------------------------------------------------------|
|-----------------------------------------------------------------------------|
|----------------------------4-4-4-/5-5-5-------------------------------------|
|-3-333333-5-000000-2-222222-4-4-4-/5-5-5--3-333333-5-000000-2-222222-5-0-----|3x
|-3-333333-5-000000-2-222222-2-2-2-/3-3-3--3-333333-5-000000-2-222222-5-0-----|3x
|-3-333333-5-000000-2-222222---------------3-333333-5-000000-2-222222-5-0-----|3x
pm  ******   ******   ******                 ******   ******   ******
Chorus 2x

Then after the 2 chorus's do the first part of the intro twice and the the last to
end this song. Any questions contact me.
"SLiPkNoT RoCks"

| /  slide up
| \  slide down
| h  hammer-on
| p  pull-off
| ~  vibrato
| +  harmonic
| x  Mute note
===============================================================================
Comments