Slipknot - Before I Forget Chords & Tabs

 

Before I Forget Chords & Tabs

Slipknot Chords & Tabs

Version: 3 Type: Tab 0 ratings
1 star 2 stars 3 stars 4 stars 5 stars
comments

Before I Forget Tab

sLipKnOt
Vol.3 (The Subliminal Verses)
Before I Forget

------------------------------------------------------------
Espero que toquen esta fucking song que me costo mucho sacarla,
agradesco a mis dos patas jOaO y
sAlAs por haberme enseņado a tocar guitar , thank you all
Cualquier Cosa acerca de esta tablatura escribanme a mi correo
sic_stone_sour@hotmail.com

stay(sic)
------------------------------------------------------------

Intro :

Guitar 1
|----------------------------------------------------|
|----------------------------------------------------|
|----------------------------------------------------|
|-0h1---0h1---0h1---0h1----0h1h2h1-------------------|  X4
|-0h1---0h1---0h1---0h1----0h1h2h1-------------------|
|-0h1---0h1---0h1---0h1----0h1h2h1-------------------|


Guitar 1 & Guitar2
|----------------------------------------------------|
|----------------------------------------------------|
|----------------------------------------------------|
|-0h1---0h1---0h1---0h1----0h1h2h1-------------------|  X3
|-0h1---0h1---0h1---0h1----0h1h2h1-------------------|
|-0h1---0h1---0h1---0h1----0h1h2h1-------------------|


Guitar 1 & Guitar2
|----------------------------------------------------|
|----------------------------------------------------|
|----------------------------------------------------|
|-0h1---0h1---0h1----4-4-1-1-4-4-1-1-----------------|  X1
|-0h1---0h1---0h1----4-4-1-1-4-4-1-1-----------------|
|-0h1---0h1---0h1----4-4-0-0-4-4-0-0-----------------|

Guitar 1 & Guitar2
|----------------------------------------------------|
|----------------------------------------------------|
|----------------------------------------------------|
|-0h1---0h1---0h1---0h1----0h1h2h1-------------------| X3
|-0h1---0h1---0h1---0h1----0h1h2h1-------------------|
|-0h1---0h1---0h1---0h1----0h1h2h1-------------------|

Guitar 1 & Guitar2
|---------------------------------------------------|
|---------------------------------------------------|
|---------------------------------------------------|
|-0h1---0h1---0h1---0h1---4-4-1-1-------------------|  X1
|-0h1---0h1---0h1---0h1---4-4-1-1-------------------|
|-0h1---0h1---0h1---0h1---4-4-0-0-------------------|

Guitar 1 & Guitar2
|----------------------------------------------------|
|----------------------------------------------------|
|----------------------------------------------------|
|-0h1---0h1---0h1---0h1----0h1h2h1-------------------| X3
|-0h1---0h1---0h1---0h1----0h1h2h1-------------------|
|-0h1---0h1---0h1---0h1----0h1h2h1-------------------|

Guitar 1 & Guitar2
|---------------------------------------------------|
|---------------------------------------------------|
|---------------------------------------------------|
|-0h1---0h1---0h1---4-4-1-1-4-4-1-1-----------------|  X1
|-0h1---0h1---0h1---4-4-1-1-4-4-1-1-----------------|
|-0h1---0h1---0h1---4-4-0-0-4-4-0-0-----------------|

*** VERSE *** (4X)

Guitar 1                             Guitar 2                  B
|-----------------        |-------------------------------------------------------------------------------|
|-----------------        |-------------------------------------------------------------------------------|
|-3-3-2-0-4-------  X7    
 X1
|-3-3-2-0-4-------        |--4-4-1-1----------------------------------------------------------------------|
|-3-3-2-0-4-------        |--4-4-0-0----------------------------------------------------------------------|
[........PM.......]

°°°°°°°°°°°°°°°°°°°°°°°°°°°°°°°°°°°°°°°°°°°°°°°°°°°°°°°°°°°°°°°

Guitar 1  (X2)                    Guitar 1(X2)
|----------------     |---------------------|
|--0-1-0-1------ X1   |--0-1-0-1-2-1-0------|  X1
|--0-1-0-1------      |--0-1-0-1-2-1-0------|
[........PM.......]     [.......PM.......]


 Guitar 2
|-----------------------|
|-----------------------|
|-----------------------|
|-----------------------|
|-1-----4-----3-----2---|
|-1-----4-----3-----2---|

|---------------|
|---------------|
|---------------|
|---------------|
|---------------|
|--0-1-0-1------|

|------------------|
|------------------|
|------------------|
|------------------|
|------------------|
|--0-1-0-1-2-1-0---|

|--------------------------|
|--------------------------|
|--------------------------|
|--------------------------|
|--------------------------|
|-1-----4-----3-----2------|

°°°°°°°°°°°°°°°°°°°°°°°°°°°°°°°°°°°°

*** CHORUS ***

Guitar 1 & Guitar 2
|-------------------------------------------------|
|-------------------------------------------------|
|-------------------------------------------------|
|--1----0-1-4----0-1-4----2-0-1-------------------|      X2
|--1----0-1-4----0-1-4----2-0-1-------------------|
|--1----0-1-4----0-1-4----2-0-1-------------------|

Guitar 1 & Guitar 2
|--------------------------------------------------|
|--------------------------------------------------|
|--------------------------------------------------|
|--1----0-1-4----0-1-4----1-0-1--------------------|      X1
|--1----0-1-4----0-1-4----1-0-1--------------------|
|--1----0-1-4----0-1-4----1-0-1--------------------|

Guitar 1 & Guitar 2
|---------------------------------------------|
|---------------------------------------------|
|---------------------------------------------|
|-6-6-6-7-6-9--44444-6-7-6--------------------|   X2
|-6-6-6-7-6-9--44444-6-7-6--------------------|
|-6-6-6-7-6-9--44444-6-7-6--------------------|

****************
[ Tab from: http://www.guitartabs.cc/tabs/s/slipknot/before_i_forget_tab_ver_3.html ]
Guitar 1 & Guitar2
|----------------------------------------------------|
|----------------------------------------------------|
|----------------------------------------------------|
|-0h1---0h1---0h1---0h1----0h1h2h1-------------------|  X3
|-0h1---0h1---0h1---0h1----0h1h2h1-------------------|
|-0h1---0h1---0h1---0h1----0h1h2h1-------------------|

Guitar 1 & Guitar2
|---------------------------------------------------|
|---------------------------------------------------|
|---------------------------------------------------|
|-0h1---0h1---0h1---4-4-1-1-------------------------|  X1
|-0h1---0h1---0h1---4-4-1-1-------------------------|
|-0h1---0h1---0h1---4-4-0-0-------------------------|


*** VERSE 2 ***

Guitar 1                             Guitar 2
|-------------------     |-------------------     |--->
|-------------------    |-------------------      |--->
|-------------------    |-------------------      |--->
|-3-3-2-0-4-------  X7  |--4-4-1-1---------  X1   |--->   X2
|-3-3-2-0-4-------      |--4-4-1-1---------       |--->
|-3-3-2-0-4-------      |--4-4-0-0---------       |--->
°°°°°°°°°°°°°°°°°°°°°°°°°°°°°°°°°°°°°°°°°°°°°°°°°°°°°°°°°°
Guitar 1  (X2)                    Guitar 1(X2)
|----------------     |---------------------|
|--0-1-0-1------ X1   |--0-1-0-1-2-1-0------|  X1
|--0-1-0-1------      |--0-1-0-1-2-1-0------|
[........PM.......]     [.......PM.......]


 Guitar 2
|-----------------------|
|-----------------------|
|-----------------------|
|-----------------------|
|-1-----4-----3-----2---|
|-1-----4-----3-----2---|

|---------------|
|---------------|
|---------------|
|---------------|
|---------------|
|--0-1-0-1------|

|------------------|
|------------------|
|------------------|
|------------------|
|------------------|
|--0-1-0-1-2-1-0---|

|--------------------------|
|--------------------------|
|--------------------------|
|--------------------------|
|--------------------------|
|-1-----4-----3-----2------|

°°°°°°°°°°°°°°°°°°°°°°°°°°°°°°°°°°°°

*** CHORUS ***

Guitar 1 & Guitar 2
|-------------------------------------------------|
|-------------------------------------------------|
|-------------------------------------------------|
|--1----0-1-4----0-1-4----2-0-1-------------------|      X2
|--1----0-1-4----0-1-4----2-0-1-------------------|
|--1----0-1-4----0-1-4----2-0-1-------------------|

Guitar 1 & Guitar 2
|--------------------------------------------------|
|--------------------------------------------------|
|--------------------------------------------------|
|--1----0-1-4----0-1-4----1-0-1--------------------|      X1
|--1----0-1-4----0-1-4----1-0-1--------------------|
|--1----0-1-4----0-1-4----1-0-1--------------------|

Guitar 1 & Guitar 2
|------------------------------------------------|
|------------------------------------------------|
|------------------------------------------------|
|-6-6-6-7-6-9--4--44444-6-7-6--------------------|   X2
|-6-6-6-7-6-9--4--44444-6-7-6--------------------|
|-6-6-6-7-6-9--4--44444-6-7-6--------------------|

*** VERSE  3 ***
Guitar 1                         Guitar 2
|-------------------          |---------------|
|-------------------          |---------------|
|-------------------          |---------------|
|--3h4-444444--- X3      |-344--6-4-----------| X1
|-------------------          |---------------|
|-------------------          |---------------|

*** SOLO ***
Guitar 2
|----------------------------------------------|
|----------------------------------------------|
|----------------------------------------------|
|--8/11--9896--8/6--6-6/9--878--6-6/4----------|     X1
|----------------------------------------------|
|----------------------------------------------|

*** VERSE  4 ***
Guitar 2
|-------------------            |-----------------------|
|-------------------            |-----------------------|
|-------------------            |-----------------------|
|--3h4-444444--- X6        |-6---8-9-10-9-8-6-- X15-----|
|-------------------            |-----------------------|
|-------------------            |-----------------------|


*** CHORUS *** (3X)

Guitar 1 & Guitar 2
|-------------------------------------------------|
|-------------------------------------------------|
|-------------------------------------------------|
|--1----0-1-4----0-1-4----2-0-1-------------------|      X2
|--1----0-1-4----0-1-4----2-0-1-------------------|
|--1----0-1-4----0-1-4----2-0-1-------------------|

Guitar 1 & Guitar 2
|--------------------------------------------------|
|--------------------------------------------------|
|--------------------------------------------------|
|--1----0-1-4----0-1-4----1-0-1--------------------|      X1
|--1----0-1-4----0-1-4----1-0-1--------------------|
|--1----0-1-4----0-1-4----1-0-1--------------------|

Guitar 1 & Guitar 2
|------------------------------------------------|
|------------------------------------------------|
|------------------------------------------------|
|-6-6-6-7-6-9--4--44444-6-7-6--------------------|   X2
|-6-6-6-7-6-9--4--44444-6-7-6--------------------|
|-6-6-6-7-6-9--4--44444-6-7-6--------------------|

*** OUTRO ***
Guitar 1 & Guitar 2
|----------------------------------------------------|
|----------------------------------------------------|
|----------------------------------------------------|
|-0h1---0h1---0h1---0h1----0h1h2h1-------------------|  X7
|-0h1---0h1---0h1---0h1----0h1h2h1-------------------|
|-0h1---0h1---0h1---0h1----0h1h2h1-------------------|

Guitar 1 & Guitar2
|----------------------------------------------------|
|----------------------------------------------------|
|----------------------------------------------------|
|-0h1---0h1---0h1----4-4-1-1-4-4-1-1-----------------|  X1
|-0h1---0h1---0h1----4-4-1-1-4-4-1-1-----------------|
|-0h1---0h1---0h1----4-4-0-0-4-4-0-0-----------------|

End
Comments