Slipknot - Before I Forget Chords & Tabs

 

Before I Forget Chords & Tabs

Slipknot Chords & Tabs

Version: 2 Type: Tab 0 ratings
1 star 2 stars 3 stars 4 stars 5 stars
comments

Before I Forget Tab

   
Drop B
(intro)
|-----------------------------------|       |----------------------|
|-----------------------------------|       |----------------------|
|-----------------------------------| X6 |-------------------------|
|-0h2--0h2h3p2--0h2--2h3p2-----|       |-5-5-0-0-5-5-0-0-----------|
|-0h2--0h2h3p2--0h2--2h3p2-----|       |-5-5-0-0-5-5-0-0-----------|
|-0h2--0h2h3p2--0h2--2h3p2-----|       |-5-5-0-0-5-5-0-0-----------|

GO!!!

(Verse)
|-----------------------------------|       |----------------------|
|-----------------------------------|       |----------------------|
|-----------------------------------| X6 |-------------------------|
|-0h2--0h2h3p2--0h2--2h3p2-----|       |-5-5-0-0-------------------|
|-0h2--0h2h3p2--0h2--2h3p2-----|       |-5-5-0-0-------------------|
|-0h2--0h2h3p2--0h2--2h3p2-----|       |-5-5-0-0-------------------|

|--------------------------------------------------------------|
|--------------------------------------------------------------|
|--------------------------------------------------------------|
|--2-2-2-2h3p2--2-2-2h3p2---5-5-0-0----------------------------|
|--2-2-2-2h3p2--2-2-2h3p2---5-5-0-0----------------------------|
|--2-2-2-2h3p2--2-2-2h3p2---5-5-0-0----------------------------|
[ Tab from: http://www.guitartabs.cc/tabs/s/slipknot/before_i_forget_tab_ver_2.html ]
(Pre Chorus)
|--------------------|
|--------------------|
|--------------------|
|--2-2-2-------------|
|--2-2-2-------------|
|--2-2-2-------------|
    * * *
(pre chorus Guitar 2)
|-----15/16~~-----9/10~~--16/16~~-------|
|---------------------------------------|
|---------------------------------------|
|---------------------------------------|
|---------------------------------------|
|---------------------------------------|
LISTEN!!
(Chorus)
|---------------------------       |------------------------------|
|---------------------------       |------------------------------|
|--------------------------- X3 |---------------------------------|
|-2-0h2-5-0h2-5-0-8p7---       |-7-7-7h9p7-10-5-5-7/8-------------|
|-2-0h2-5-0h2-5-0-8p7---       |-7-7-7h8p7-10-5-5-7/8-------------|
|-2-0h2-5-0h2-5-0-8p7---       |-7-7-7h8p7-10-5-5-7/8-------------|

|-----------------------------------------------------------------------------|
|-----------------------------------------------------------------------------|
|---------------------------7-5-4-----5-4-2-0---------------------------------|
|---5555555-4-5555555----------7--------------4-5555555-4-5555555-------------|
|-----------------------------------------------------------------------------|
|-----------------------------------------------------------------------------|
(Guitar 1)
My End, It Justifies My means...
|-----------------------------------------------------------------------|
|-----------------------------------------------------------------------|
|-----------------------------------------------------------------------|
|-----------------------------------------------------------------------|
|-2222222-5555555-00000000----------------------------------------------|
|-2222222-5555555-00000000----------------------------------------------|

(Guitar 2)
|----------------------|
|----------------------|
|----------------------|
|----------------------|
|-0-2-0-2-3p2-0h2------|
|----------------------|

There Ya go, Its all correct, even the backround riffs in the interlude. Enjoy Maggots!

Intro X3
Verse X4
Pre Chorus X1
Chorus X2
Verse X3
Pre Chorus X1
Chorus X2
Interlude
Chorus X4
Comments