Slipknot - Before I Forget Chords & Tabs

 

Before I Forget Chords & Tabs

Slipknot Chords & Tabs

Version: 3 Type: Bass Tab 0 ratings
1 star 2 stars 3 stars 4 stars 5 stars
comments

Before I Forget Bass Tab

   
song: before i forget
Tuning:B F# B E
h hammer on
p pull off
+ let ring till the next # like this 2-2 you only play one 2 instead of two
[A]Intro                             + +

bass rest untill guitar plays the firts measure 4 times then bass plays

-------------|
-------------|play two more times
-------------|
--2--2--2--2-|

------------------------       GO--|
-----------------------------------|rest
-----------------------------------|
--2------2---0---5-5-5-0-----------|

Bass figure 1
--------------------------------|
--------------------------------| repeat 2 more times
--------------------------------|
--0h2-0-h2-3p2-2-0-h2-0-h3-p2---|

---------------------------- end of      -----------|
---------------------------- bass        -----------|
---------------------------- figure 1    -----------|
--0h2---0h2---0h2-5-5-5-0---             ---5-5-5-0-|

[B]verses (0.32,1.44)

1.staple shut inside an outside i'm sealed in thight bizarre and at home
smeared across the page and doused in gasoline i wear you like a stain
yet i'm the one who's obscene
2. ripped across the dithch and settled in the dirt and wear you like a
stitch yet i'm the one who's hurt

bass figure 2
------------------------|
------------------------|  reapeat 2 more times
------------------------|
--2222-3----2222-3------|

--------------------|
--------------------| end of bass figure 2
--------------------|
--222233225-5-5-0---|

then repeat bass figure 2 again

[C]pre-chorus (1:01,1:58)

-------------------|
-------------------| repeat 2 more times
-------------------|
2---2-2-3-3-2-2-3--|
    + + + +

------------------|
------------------|
------------------|
--2--2-2-3-3-2-3--|
     + + + +

[D] chorus (1:08,2:05,3:25)
i am a world before i am a man i was a creature before i could stand

-------------------------------------------|
-------------------------------------------|
-------------------------------------------|
--2----2--3-2-5----5--0----5--0--8----8--3-|
  +    +      +    +             +    +

-------------------------------------|
-------------------------------------|
-------------------------------------|
-2----2--3-2--5----5--0----5-5-0-8-7-|
 +    +       +    +
        2nd time on the chorus skip ahead to the interlude
        3rd time on the chorus skip ahead to outro

 i will remember before i forget before i forget that
[ Tab from: http://www.guitartabs.cc/tabs/s/slipknot/before_i_forget_btab_ver_3.html ]
----------------------------------------|
----------------------------------------|
----------------------------------------|
-----2----2--3-2--5----5--0----5--5-0-8-|
     +    +       +    +

---------------------------------------|
---------------------------------------|
---------------------------------------|
-----7----7----7-8-7--10----10-5----5--|
                       +     +

----------|
----------| play 3 times on the 3rd chorus
----------|
--5-8-8-7-|

[E] (1:36)

bass plays figure 1


[F] interlude (2:33)
    w/half-time feel

bass figure 3
-------------------------------------|
-------------------------------------|
-------------------------------------|
--3-----3-3-3-3-3-5---5--0-0-0-7-5-0-|
                  +   +
                                    end of figure 3
---------------------------------------------|
-------------------------+---+------+--+-----|
-------------------------2---2--2-2-5--5-5-5-|
--2---2-2-2-2-2-2-2--------------------------|

then bass plays figure 3 three times

[G] bridge (3:00)

bass figure 4

-------------------------------------------------|
-------------------------------------------------|
-------------------------------------------------|
3--3-3-3-3-3-3-3-5----5--0-0-0-0-0-0--2---2--2-2-|
+  +             +    +               +   +

-----------------------------|
----------+---+------+-+-----| end of figure 4
----------2---2--2-2-5-5-5-0-|
-2-2-2-2---------------------|

my every attempt to evade the end of the road and my end

bass plays figure 4 twice
                                    go back to [D]
my every attempt to envade the end of the road
------------------------------------------|
------------------------------------------|
------------------------------------------|
--3---3-3-3-3-3-3-0-5----5--0-0-0-0-5-4-2-|
  +   +             +    +

---------------------------------------|
---------------------------------------|
----------------------2-2-2-2--5-5-5-5-|
---2-2-2-2-2-2-2-0---------------------|

[H] outro (4:05)           (4.)yeah
               (5.)yeah        yeah
               (6.)yeah        yeah
               (7.)yeah        yeah

---------------------------|
---------------------------| play 7 times
---------------------------|
--0h2-0h2-3p2-2-0h2--0h3p2-|

---------------------------------------|
---------------------------------------|
---------------------------------------|
--0h2-0h2-0h2-5--5--5-0-----5--5--5--0-|

this is 100% because its out of gw magazine
Comments