Slint - Don, Aman Chords & Tabs

 

Don, Aman Chords & Tabs

Slint Chords & Tabs

Version: 1 Type: Tab 0 ratings
1 star 2 stars 3 stars 4 stars 5 stars
comments

Don, Aman Tab

Don, Aman by Slint


Verse: 
E|--------------------------------|
B|--------------------------------|
G|--------------------------------|
D|-2-2-2-2-2-2-3-2---0-0-0--0-0-0-|
A|-2-2-2-2-2-2-2-2---5-5-5--4-4-4-|
E|-3-0-0-0-0-0-------6-6-6--5-5-5-|

(Repeat 9 times)


E|----------------------|-------------------|
B|----------------------|-------------------|
G|----------------------|-------------------|   
D|0-0-0----0-0-0-0------|-0-0-0-7-7-7-7-5-2-|
A|5-5-5----4-4-4-4------|-5-5-5---7-7-7-5-2-|      
E|6-6-6----5-5-5-5------|-6-6-6---5-5-5-3-0-|


E---------|---------|-------------|
B---------|---------|-------------|
G---------|---------|-------------|
D-------7-|-------5-|-----------5-|
A----5----|----3----|------3------|
E-6-------|-4-------|-0-----------|

[ Tab from: http://www.guitartabs.cc/tabs/s/slint/don_aman_tab.html ]
Fast part (x3)
E|---------------------------------|---------------------------------|
B|---------------------------------|---------------------------------|
G|-5-5-5-5-5-5-5-5-5-5-5-5-5-5-5-5-|-5-5-5-5-5-5-5-5-5-5-5-5-5-5-5-5-|
D|-5-5-5-5-5-5-5-5-5-5-5-5-5-5-5-5-|-4-4-4-4-4-4-4-4-6-6-6-6-6-6-6-6-|
A|-3-3-3-3-3-3-3-3-3-3-3-3-3-3-3-3-|-3-3-3-3-3-3-3-3-3-3-3-3-3-3-3-3-|
E|-0-0-0-0-0-0-0-0-4-4-4-4-4-4-4-4-|-4-4-4-4-4-4-4-4-4-4-4-4-4-4-4-4-|

Fast Part  (Distorted)
E|-------------------------------------------------------------------|
B|-------------------------------------------------------------------|    
G|-5-5-5-5-5-5-5-5-5-5-5-5-5-5---5-5-5-5-5-5-5-5-5-5-5-5-5-5-5-5-5-5-|	    
D|-5-5-5-5-5-5-5-5-5-5-5-5-5-5---4-4-4-4-4-4-4-4-6-6-6-6-6-6-6-6-6-6-|   
A|-3-3-3-3-3-3-3-3-3-3-3-3-3-3---6-6-6-6-6-6-6-6-6-6-6-6-6-6-6-6-6-6-|   
E|-0-0-0-0-0-0-0-0-0-0-0-0-0-0---4-4-4-4-4-4-4-4-4-4-4-4-4-4-4-4-4-4-|

Switches to normal at about the 4:50 mark, after turning distortion off it goes back to the verse riff.
Comments