Slightly Stoopid - Sun Is Shining Chords & Tabs

 

Sun Is Shining Chords & Tabs

Slightly Stoopid Chords & Tabs

Version: 2 Type: Tab 0 ratings
1 star 2 stars 3 stars 4 stars 5 stars
comments

Sun Is Shining Tab

   
SUNSHINI.TAB

This TAB transcription was created using TAB MASTER version 1.0
If you enjoy using this program, please consider telling the author
about it: Ofir Zwebner, e-mail: ofirz1@ccsg.tau.ac.il
                    snail-mail: Ehoud 10, Tel Aviv, 69936, Israel

This program is freeware, but it took me some work to make it, so
your financial contribution is welcome.

--------------------------------------------------------------------

  Title: Sun is Shining
  Artist: Slightly Stoopid
  Transcribed by: Steven C.
  h= hammer
  p= pull off
  /= slide up
  \= slide down


e:14----9--9--10h9---12-12-12-13h12--7--7--8h7--9--9--9--10h9--5-5--3h4-3-|
B:15----10-10-10-----13-13-13-13-----8--8--8----10-10-10-10----6-6--4-----|
G:14----9--9--9------12-12-12-12-----7--7--7----9--9--9--9-----5-5--3-----|
D:0-----0--0--0------0--0--0--0------0--0--0----0--0--0--0-----0-0--0-----|
A:------------------------------------------------------------------------|
E:------------------------------------------------------------------------|
  Strumming   :      1 & a 2 & a 3, etc

                               


e:2--2-2-3p2p0-2--------------|
B:3--3-3-3-----3--------------|
G:2--2-2-2-----2--------------|
D:0--0-0-0-----0--------------|
A:----------------------------|
E:----------------------------|
  Repeat once, then play this:



[ Tab from: http://www.guitartabs.cc/tabs/s/slightly_stoopid/sun_is_shining_tab_ver_2.html ]
e:---------------------------------------------------------------------0-0--0|
B:---------------------------------------------------------------------2-2--2|
G:---------------------------------------------------------------------2-2--2|
D:-----0-----0----4h5p4---4-5-7-----------------5----------------------2-2--2|
A:-0h2----2--5----------5-------5--3h5p3--0--------5-4-0--7/9-7--5--0--0-0--0|
E:-------------------------------------------3-------------------------------|


                               
                               
e:------3-3--3---2--2-2-3p2p0-2|
B:------3-3--3---3--3-3-3-----3|
G:------0-0--0---2--2-2-2-----2|
D:------0-0--0---0--0-0-0-----0|
A:------2-2--2-----------------|
E:---3--3-3--3-----------------|
  Repeat this part once and then the rest is very simple.  It repeats the same
   base, and then the other guy plays a D barre chord every 2 & 4.  

 After he sings the Rock'n and roll'n and feelin' Jah fine... it changes a little:


e:---------------------|------------------|
B:---------------------|------------------|
G:---------------------|------------------|
D:---------------------|------------------|
A:--0--3--5---3--0-----|--0--3--5---3---5-|
E:------------------3--|------------------|
  This repeats once, then some barre chord work.

e:------------------------------------------------------------------
B:11-10-9--9-8-7----------------------------------------------------
G:11-10-9--9-8-7------------------------------7p5---5-------5h7p5-7-
D:11-10-9--9-8-7---------------4h5p4----4-5-7-----7---7-5-7---------
A:9--8--7--7-6-5-------0-3-5---------5------------------------------
E:------------------------------------------------------------------

  And then the second part of the intro is played again.
Comments