Slightly Stoopid - Sun Is Shining Chords & Tabs

 

Sun Is Shining Chords & Tabs

Slightly Stoopid Chords & Tabs

Version: 1 Type: Tab 0 ratings
1 star 2 stars 3 stars 4 stars 5 stars
comments

Sun Is Shining Tab

Slightly Stoopid Sun is Shining
Tabbbed by sina samie shoooooooooooshtari

comments on my crappy tabbage?? email thisisnotsina@hotmail.com

14--9---12h13p12--7h8p7--5h6p7--2-------------------------------------
15--10--13--------8------6------3-------------------------------------
16--11--14--------9------7------4-------------------------------------
---------------------------------------------------------------------
---------------------------------------------------------------------
---------------------------------------------------------------------

[ Tab from: http://www.guitartabs.cc/tabs/s/slightly_stoopid/sun_is_shining_tab.html ]
-----------------------------3----------------------------------------
-----------------------------3----------------------------------------
-----------------------------0----------------------------------------
-----------4h5p4p0h4/7p5-----0-5-3----------------7-------------------
-2-2-5-2-5-------------5-3-0-2-----5-3--------7-9---7-5---------------
-----------------------------3---------5-2/3--------------------------

-5-3-2h3p2-----------------------------------------------------------
-5-3-3---------------------------------------------------------------
-6-4-x---------------------------------------------------------------
-7-5-----------------------------------------------------------------
---------------------------------------------------------------------
---------------------------------------------------------------------
Comments