Slightly Stoopid - Mexico Chords & Tabs

 

Mexico Chords & Tabs

Slightly Stoopid Chords & Tabs

Version: 1 Type: Bass Tab 0 ratings
1 star 2 stars 3 stars 4 stars 5 stars
comments

Mexico Bass Tab

Song: Mexico
Band: Slightly Stoopid
Album: Skunk Spring Sampler '99
Tabbed by: Rob MacGuffie (SubDubLBC@aol.com)

[ Tab from: http://www.guitartabs.cc/tabs/s/slightly_stoopid/mexico_btab.html ]
 Main part: Slight variation
 |---------------------------|
 |-------------------5---5-5-|
 |-----5---5-5---5-5---5-----|
 |-5-5---5-------------------|

 Near the end: Break in main line for a couple measures
 |---------------------------|
 |-------------------3---3-3-|
 |-----3---3-3---3-3---3-----|
 |-3-3---3-------------------|

Comments