Slightly Stoopid - Mellow Mood Chords & Tabs

 

Mellow Mood Chords & Tabs

Slightly Stoopid Chords & Tabs

Version: 1 Type: Tab 0 ratings
1 star 2 stars 3 stars 4 stars 5 stars
comments

Mellow Mood Tab

MELLOWMO.TAB

This TAB transcription was created using TAB MASTER version 1.0
If you enjoy using this program, please consider telling the author
about it: Ofir Zwebner, e-mail: ofirz1@ccsg.tau.ac.il
                    snail-mail: Ehoud 10, Tel Aviv, 69936, Israel

This program is freeware, but it took me some work to make it, so
your financial contribution is welcome.

--------------------------------------------------------------------

  Title: Mellow Mood
  Artist: Slightly Stoopid
  Transcribed by: Steven C.
  /= slide up
  \= slide down


e:-------------------------------------------------------3-------------------|
B:------------------------------3---------------------------1/2\1-----3------|
G:---x-------x--0--x-------x-------x-------x----0--x--------2/3\2------------|
D:0--x--0-0--x-/2--x--0-0--x-/2----x--0-0--x-/2----x---------------/2----0---|
A:2--x--2-2--x-/3--x--2-2--x-/3----x--2-2--x-/3----x--2------------/3----2---|
E:3--x--3-3--x-----x--3-3--x-------x--3-3--x-------x--3------------------3---|




[ Tab from: http://www.guitartabs.cc/tabs/s/slightly_stoopid/mellow_mood_tab.html ]
e:------------------------------------------------/5-/3\2-------------3------|
B:3-3--3-3----------------------------------3-----/6-/4\3----1----------3----|
G:0-0--0-0-------x-------x-----x-------x------------------------x---------0--|
D:0-0--0-0----0--x--0-0--x-/2--x--0-0--x-/2---0-----------/2----x--0---------|
A:2-2--2-2----2--x--2-2--x-/3--x--2-2--x-/3---2-----------/3----x--2---------|
E:3-3--3-3----3--x--3-3--x-----x--3-3--x------3-----------------x--3---------|




	   N. Harmonics
e:---------12-12-12-------------------------------------5-/3\2-----------3---|
B:------3--12-12-12-------------------------------3-----7-/5\4-----1---------|
G:---0--0--12-12-12--x-------x---0--x-------x-------------------------------0|
D:/2----0--12-12-12--x--0-0--x--/2--x--0-0--x--/2----0----------/2----0------|
A:/3----2------------x--2-2--x--/3--x--2-2--x--/3----2----------/3----2------|
E:------3------------x--3-3--x------x--3-3--x--------3----------------3------|




		       N. Harmonics	
e:---------------------12-12-12--------------------------------------3/5-----|
B:--3------3-----3-----12-12-12------------------------------3-------3/5-----|
G:------------x--0--x--12-12-12--x-------x---0--x-------x--------------------|
D:-----/2-----x--0--x--12-12-12--x--0-0--x--/2--x--0-0--x-/2----0-0-------/2-|
A:-----/3-----x--2--x------------x--2-2--x--/3--x--2-2--x-/3----2-2-------/3-|
E:------------x--3--x------------x--3-3--x------x--3-3--x-------3-3----------|


                                                                

						       N. Harmonics	
e:----------------------------------0------------------12-12\--|
B:3--------------1----------------3---3----1-3-1-------12-12\--|
G:--x------x--------x-------x------------------------x-12-12\--|
D:--x--0-0-x--/2----x--0-0--x--/2-------/1--------0--x-12-12\--|
A:--x--2-2-x--/3----x--2-2--x--/3-------/2--------2--x---------|
E:--x--3-3-x--------x--3-3--x---------------------3--x---------|





Comments