Slightly Stoopid - Jedi Chords & Tabs

 

Jedi Chords & Tabs

Slightly Stoopid Chords & Tabs

Version: 1 Type: Bass Tab 0 ratings
1 star 2 stars 3 stars 4 stars 5 stars
comments

Jedi Bass Tab

Song: Jedi
Artist: Slightly Stoopid
Album: Longest Barrel Ride
Tabbed By: ADRA (d_abernathy20@hotmail.com)


This whole song consists of only one line, repeated over and over. 
Here it is.

\= slide down
[ Tab from: http://www.guitartabs.cc/tabs/s/slightly_stoopid/jedi_btab.html ]
G|------------------------|
D|------------------------|
A|-----------6666-6-6-4-6-|  X3
E|-4-444-4\0--------------|

G|--------------------|
D|-----4--------------|
A|-555---5-6-7--------|  X1
E|-------------55-6-7-|


Again, you just keep playing this the whole song. I am not as sure
about the second part, but that is the general form. If you have 
any questions or comments, e-mail me at d_abernathy20@hotmail.com.
Enjoy.
Comments