Slightly Stoopid - I Couldnt Get High Chords & Tabs

 

I Couldnt Get High Chords & Tabs

Slightly Stoopid Chords & Tabs

Version: 2 Type: Tab 0 ratings
1 star 2 stars 3 stars 4 stars 5 stars
comments

I Couldnt Get High Tab

   
#-----------------------------------------------------------------------------#
#-- File created with Instab - http://www.pconline.com/~smcarey/instab.html --#
#-----------------------------------------------------------------------------#

Author/Artist: Slightly Stoopid
Title: I Couldn't Get High
Transcribed by: NP
Standard Tuning. 
t=tap
h=hammer on
p=pull off
x=rake strings

-|----------------------------------------------------------------------------
-|--5------------5------x-x-x-----5----5---------5------x-x-x-----------------
-|--5h6----------5h6----x-x-x-----5h6--5-5t6-----5h6----x-x-x-----------------
-|-----7--5-7-------7---x-x-x--------7--------------7---x-x-x-----------------
-|----------------------------------------------------------------------------
-|----------------------------------------------------------------------------
 RIFF1                                  tap w/middle finger                   

-|------------------5---------------------------------------------------------
-|--5------------7--5--7------------------------------------------------------
-|--5h6----------7--6--7----7p5---5-------------------------------------------
-|-----7--5-7----7--7--7--------7---7-5h7-------------------------------------
-|---------------5--7--5------------------------------------------------------
-|------------------5---------------------------------------------------------
 RIFF2           D  A  D(let ring for A sec)                                  

-|-----------------------|--------------5-------------------------------------
-|--5-----x---5----------|-----------7--5--7----------------------------------
-|--5h6---x---5h6--------|-x3--------7--6--7---7p5---5------------------------
-|-----7--x-------7-5-7--|-----------7--7--7-------7---7-5h7------------------
-|-----------------------|-----------5--7--5----------------------------------
-|-----------------------|--------------5-------------------------------------
 RIFF3  Singing starts here..."I've got new sunglasses..."                    

-|----------------------------------------------------------------------------
-|----------------------------------------------------------------------------
-|---5---------5--8-7---------5-----5-----------------------------------------
-|-----7--5--7--------------7---7-5---7-5-5h7---5t7---------------------------
-|-----------------------------------------------------7-6-5-0-3--------------
-|----------------------------------------------------------------------------
                                                tap                           
[ Tab from: http://www.guitartabs.cc/tabs/s/slightly_stoopid/i_couldnt_get_high_tab_ver_2.html ]
-|----------------------------------------------------------------------------
-|--5------------7--5-7-5---5--------7-5----5--------7-5---5---7---5----------
-|--6--5-5-------7--5-7-5---6--5-5---7-5----6--5-5---7-5---6---7---6----------
-|--7--5-5-------7--5-7-5---7--5-5---7-5----7--5-5---7-5---7---7---7----------
-|--7--5-5-------5--5-5-5---7--5-5---5-5----7--5-5---5-5---7---5---7----------
-|--5--5-5------------------5--5-5----------5--5-5---------5-------5----------
 RIFF 4 Listen to song for the strumming pattern.                             

-|----------------------------------------------------------------------------
-|------------------------------5---7-----------------------------------------
-|------------------------------6---7-----------------------------------------
-|---7p5------------------------7---7-----------------------------------------
-|-------7-6-5-0-3--------------7---5-----------------------------------------
-|-----------------0-2-0-3-4-0--5---------------------------------------------
                              " I went to this party..."                      

-|------------------------------------------------|---------------------------
-|-7---7---7---7-7-7-7-5-----7---7---7---9-9-9-9--|----5---7------------------
-|-7---7---7---7-7-7-7-5-----7---7---7---9-9-9-9--|----6---7------------------
-|-7---7---7---7-7-7-7-5-----7---7---7---9-9-9-9--|----7---7------------------
-|-5---5---5---5-5-5-5-5-----5---5---5---7-7-7-7--|----7---5------------------
-|------------------------------------------------|----5----------------------
  "I grabbed my bottle...."                        "I couldn't get high..."   

-|----------------------------------------------------------------------------
-|----------------------------------------------------------------------------
-|---------------------------------------7p5----------------------------------
-|-555555p4--------------555555p4--4-5-7-----7----555555p4--------------------
-|---------5-3-5-3-5-3-----------5------------------------5-3-5-3-5-3---------
-|----------------------------------------------------------------------------
   solo...                                                                    

-|-----------------------------|----------------------------------------------
-|-------------------7p5-------|----------------------------------------------
-|-------------------7p5--5----|----------------------------------------------
-|---555555p4--4-5-7-----7-7---|----------------------------------------------
-|-----------5-----------------|----------------------------------------------
-|-----------------------------|----------------------------------------------
   continued...                   Song ends with RIFF 4...thanks.
Comments