Slightly Foreign - Nameless Girl Chords & Tabs

 

Nameless Girl Chords & Tabs

Slightly Foreign Chords & Tabs

Version: 1 Type: Tab 0 ratings
1 star 2 stars 3 stars 4 stars 5 stars
comments

Nameless Girl Tab

Slightly Foreign
Nameless Girl
Tuning - Standard
Intro 
--------------------------------------------------------------
--------------------------------------------------------------
--------------------------------------------------------------   X 2
---4-0----4--0---4--0---4--0---4--0---4--0----4--0----4--0----
-2-----2------------------------------------------------------
---------------5------5------3------3-------2-------2---------
[ Tab from: http://www.guitartabs.cc/tabs/s/slightly_foreign/nameless_girl_tab.html ]
Verse
--------------------------------------------------------------
--------------------------------------------------------------
--------------------------------------------------------------
-777777777--99999999------------------------------------------ X 4
-555555555--77777777--99999999--7777--5555--------------------
----------------------77777777--5555--3333--------------------
Chorus
--------------------------------------------------------------
--------------------------------------------------------------
--------------------------------------------------------------
-55555555--77777777-------------------------------------------  X 2
-33333333--55555555--77777777--55555555-----------------------
---------------------55555555--33333333-----------------------
Verse
--------------------------------------------------------------
--------------------------------------------------------------
--------------------------------------------------------------
-777777777--99999999------------------------------------------ X 4
-555555555--77777777--99999999--7777--5555--------------------
----------------------77777777--5555--3333--------------------

Chorus
--------------------------------------------------------------
--------------------------------------------------------------
--------------------------------------------------------------
-55555555--77777777-------------------------------------------  X 2
-33333333--55555555--77777777--55555555-----------------------
---------------------55555555--33333333-----------------------

Solo
--------------------------------------------------------------
--------------------------------------------------------------
--------------------------------------------------------------
--7---7---9---9----------------------------------------------- X 2
5---5---7---7---9---9---7---7----5----------------------------
------------------7---7---5---5----3--------------------------

Chorus
--------------------------------------------------------------
--------------------------------------------------------------
--------------------------------------------------------------
-55555555--77777777-------------------------------------------  X 2
-33333333--55555555--77777777--55555555-----------------------
---------------------55555555--33333333-----------------------

End on
--------------------------------------------------------------
--------------------------------------------------------------
--------------------------------------------------------------
-777777777--99999999------------------------------------------ 
-555555555--77777777--99999999--7777--5-----------------------
----------------------77777777--5555--3-----------------------
Comments