Slick Shoes - The Last Round Chords & Tabs

 

The Last Round Chords & Tabs

Slick Shoes Chords & Tabs

Version: 1 Type: Bass Tab 0 ratings
1 star 2 stars 3 stars 4 stars 5 stars
comments

The Last Round Bass Tab

Song: The Last Round
Band: Slick Shoes
Album: Burn Out
tabbed by: Brad Schmitt (cmfgsf@aol.com)




G:---------------------------------------------------------------
D:---------------------------------------------------------------
A:---------------------------------------------------------------
E:---4----2---0--------------------------------------------------


G:-------------------------|-------------------------------------
D:-------------------------|-------------------------------------
A:------------2---4--------|----------2---2---1------------------
E:---4---0------------0----|--4---2---------------0--------------

[ Tab from: http://www.guitartabs.cc/tabs/s/slick_shoes/the_last_round_btab.html ]
G:------------------|------FILL----------------------------------
D:------------------|--------------------------------------------
A:---------6---7----|---7---6---4---6----------------------------
E:---4--------------|--------------------4-----------------------


G:-----------------------BRIDGE-THING----------------------------
D:---------------------------------------------------------------
A:---------------------------------------------------------------
E:-----4----6----7----0-----2------------------------------------


G:-------------------------OUTTRO--------------------------------
D:---------------------------------------------------------------
A:-----------1------2--------------------------------------------
E:-----4---------------------------------------------------------




Comments