Slick Shoes - Ten Ways Chords & Tabs

 

Ten Ways Chords & Tabs

Slick Shoes Chords & Tabs

Version: 1 Type: Tab 0 ratings
1 star 2 stars 3 stars 4 stars 5 stars
comments

Ten Ways Tab

Artist: Slick Shoes
Title:Ten Ways
Album: Slick Shoes

Tabbed by Sean Green     (the_bunglist@yahoo.com)


After the bass intro:
( figure the rhythm out for these 4 parts )

INTRO x2

E ---------2---3---7-7--5-5---2---3--------------------------------------|
A -5---4---4---5---9-9--7-7---4---5--------------------------------------|
D -7---7---4---5---9-9--7-7---4---5--------------------------------------|
G -7---7-----------------------------------------------------------------|
B -----------------------------------------------------------------------|
e -----------------------------------------------------------------------|


VERSE
   "Does time go by.....
E ---------7---5---3-----------------7---5---7---3---7---5---3-----------|
A -5--5-----9---7---5---5-----5-------9---7---9---5---9---7---5----------|
D -7--7-----9---7---5---7-----7-------9---7---9---5---9---7---5----------|
G -7--9-----------------7-----6------------------------------------------|
B -----------------------------------------------------------------------|
e -----------------------------------------------------------------------|


BRIDGE
      "Once again...."   
E -3---5---------------------3---5---------------------------------------|
A -5---7-----5---4---2---0---5---7---------------------------------------|
D -5---7-----7---7---4---2---5---7---------------------------------------|
G -----------7---7---4---2-----------------------------------------------|
B -----------------------------------------------------------------------|
e -----------------------------------------------------------------------|

[ Tab from: http://www.guitartabs.cc/tabs/s/slick_shoes/ten_ways_tab.html ]
CHORUS
  "Every day i see...." 
E -----5---7---2---3---5-------------------------------------------------|
A -5---7---9---4---5---7-------------------------------------------------|
D -7---7---9---4---5---7-------------------------------------------------|
G -7---------------------------------------------------------------------|
B -----------------------------------------------------------------------|
e -----------------------------------------------------------------------|


OUTRO ( play as shown)

E -----------------------------------------------------------------------|
A -5--5--4--5-x2---7--4--------------------------------------------------|
D -----------------------------------------------------------------------|
G -7--7--6--7------9--6--------------------------------------------------|
B -----------------------------------------------------------------------|
e -----------------------------------------------------------------------|

Guitar 2 comes in after 2 of the above ( play as shown )

E -----------------------------------------------------------------------|
A -----------------------------------------------------------------------|
D -----------------------------------------------------------------------|
G -----------------------------------------------------------------------|
B -10--8--7--8--x6-then--10--8--7--8--7--5--3----------------------------|
e -----------------------------------------------------------------------|


I know its a bit sketchy but listen to the CD and you should get it.
There are other parts i can't figure out cus i'm not as good as Greg but i 
hope this helps!!
Comments