Slick Shoes - Ruled Out Chords & Tabs

 

Ruled Out Chords & Tabs

Slick Shoes Chords & Tabs

Version: 1 Type: Tab 0 ratings
1 star 2 stars 3 stars 4 stars 5 stars
comments

Ruled Out Tab

hey this is my first tab so tell me how it is. Gimpsta48@yahoo.com
Intro....
1----------------------------------------------------------------------------
2----------------------------------------------------------------------------
3-6-6-6-6h7p6---9-9--9-7-7-7---6-6-6-6h7p6---4--4--4-1-2-4-------------------
4-------------7-----------------------------7--------------------------------
5----------------------------------------------------------------------------
6----------------------------------------------------------------------------

1----------------------------------------------------------------------------
2----------------------10-9--------------------------------------------------
3-6-6-6-6h7p6---9-9--9-----9---6-6-6-6-6-4-2-1~------------------------------
4-------------7------------------------7-6-4-2~------------------------------
5----------------------------------------------------------------------------
6----------------------------------------------------------------------------
[ Tab from: http://www.guitartabs.cc/tabs/s/slick_shoes/ruled_out_tab.html ]
Verse same as chorus but with 2nd guitar distorted dontknow strum
1----------------------------------------------------------------------------
2----------------------------------------------------------------------------
3----------------------------------------------------------------------------
4-7---6----4---2-----7---6---4--2~~------------------------------------------
5-7---6----4---2-----7---6---4--2~~let last note ring------------------------
6-5---4----2---0-----5---4---2--0~~------------------------------------------
ALL MUTED
After verse.../Chorus
1----------------------------------------------------------------------------
2----------------------------------------------------------------------------
3-----7--6--2---------7--6--2------7--6--2-------7--6--2---------------------
4-7---7--6--2----6----7--6--2---4--7--6--2---2---7--6--2---------------------
5-7---5--4--0----6----5--4--0---4--5--4--0---2---5--4--0---------------------
6-5--------------4--------------2------------0-------------------------------

Verse 2
1---------------------------------------------------------------------------
2---------------------------------------------------------------------------
3---------------------------------------------------------------------------
4--7-7-7-7--7---7-6-6-6-6-7---6--4-4-4-4--4---4--2-2-2-2-2-2----------------
5--7-7-7-7----7-7-6-6-6-6---7-6--4-4-4-4----4-4--2-2-2-2-2-2----------------
6--5-5-5-5------5-4-4-4-4-----4--2-2-2-2------2--0-0-0-0-0-0----------------
pm........      .........     ..........      ..............

1---------------------------------------------------------------------------
2---------------------------------------------------------------------------
3--4-4-4-4--2-2-2-2---------------------------------------------------------
4--4-4-4-4--2-2-2-2-dont know strum-----------------------------------------
5--2-2-2-2--0-0-0-0---------------------------------------------------------
6---------------------------------------------------------------------------
pm...................................
Comments