Slick Shoes - For Better For Worse Chords & Tabs

 

For Better For Worse Chords & Tabs

Slick Shoes Chords & Tabs

Version: 2 Type: Bass Tab 0 ratings
1 star 2 stars 3 stars 4 stars 5 stars
comments

For Better For Worse Bass Tab

Song: For Better, For Worse
Band: Slick Shoes
Album: Burn Out
tabbed by: Brad Schmitt (cmfgsf@aol.com)




G:-------------------------------------------------------------------------
D:-------------------------------------------------------------------------
A:---3-------0------------(listen carefully for rhythm)--------------------
E:-------1-------1---3-----------------------------------------------------

[ Tab from: http://www.guitartabs.cc/tabs/s/slick_shoes/for_better_for_worse_btab_ver_2.html ]
G:----------------------------|---------------------------------------------
D:----------------------------|---------------------------------------------
A:---3-------5---7---8---10---|---3-------5---7---8---10---8---7---8---7---8  
E:-------0--------------------|-------0-------------------------------------


G:-------------------------------------------------------------------------
D:-------------------------------------------------------------------------
A:---3---------------------------------------------------------------------
E:-------0---1---3---------------------------------------------------------


G:--------------------------(little slide during bridge)-------------------
D:-------------------------------------------------------------------------
A:---3 slide to 8---10-----------------------------------------------------
E:-------------------------------------------------------------------------


Comments