Slick Shoes - Angel Chords & Tabs

 

Angel Chords & Tabs

Slick Shoes Chords & Tabs

Version: 2 Type: Bass Tab 0 ratings
1 star 2 stars 3 stars 4 stars 5 stars
comments

Angel Bass Tab

Artist: Slick Shoes
Song: Angel
Tabbed by: Ivan Amaya

This tab is more accurate than my last one.  The other one
had some parts left out.  Hope you like it.


Intro(x2)... it should be pretty close
G|-8-----8-----8---6-----6-----6----
D|---9-9---9-9---9---8-8---8-8---8--
A|----------------------------------
E|----------------------------------


G|-4-----4-----4---3-----3-----3----
D|---6-6---6-6---6---4-4---4-4---4--
A|----------------------------------
E|----------------------------------


G|-4-----4-----4---3-----3-----3----
D|---2-2---2-2---2---4-4---4-4---4--
A|----------------------------------
E|----------------------------------


G|-4-----4-----4---4-------3--------
D|---2-2---2-2---2---6-6-6---4-4-4--
A|----------------------------------
E|----------------------------------
[ Tab from: http://www.guitartabs.cc/tabs/s/slick_shoes/angel_btab_ver_2.html ]
Then
G|------------------------------------
D|------------------------------1--1-2
A|-2>-1>----------------2-1-2-4--4----
E|-------4>-2>-0>-4>-2>---------------
Play that twice


Verse
G|----------------|-----------3--4-3--
D|----------------|---------4--4----4-
A|-2>-------------|-2-2-2-2-----------
E|----2>-0>-------|-------------------


Part1
G|----------------------------------
D|----------------------------------
A|------------------------------2---
E|-0-2-4>-2>-0>-2>-4>-2>-0>-4>-2----

Then(x2)
G|----------------------------------
D|----------------------------------
A|-2-2-2----------------------------
E|-------0-0-0-4-4-4-2-2-2----------


G|-----------------------------------------
D|-----------------(second part of verse)--
A|-------------2---------------------------
E|-0>-2>-0>-2>-----------------------------
Then play part 1 twice


End
G|----------------------------------
D|----------------------------------
A|----------------------------------
E|-4>-0>----------------------------


Please don't get all mad if its wrong
Enjoy.
Go to my site too http://littleiman.homepage.com
ivanamaya@lycos.com
Comments