Sleepy Sun - Marina Chords & Tabs

 

Marina Chords & Tabs

Sleepy Sun Chords & Tabs

Version: 2 Type: Tab 0 ratings
1 star 2 stars 3 stars 4 stars 5 stars
comments

Marina Tab

   
-------------------------------------------------------------------------------
                             Marina  Sleepy Sun (from the album Fever, 2010)
-------------------------------------------------------------------------------
Buy 'Fever' or the Marina 10" (the b-side is really awesome) from their website: 
http://www.sleepysun.net/
Tabbed by: Erik
Email: erik.nmgn@gmail.com

What an epic tune!

Tuning: EADGBe

INTRO I (Solo Guitar. Distort & reverb as much as you can!)
e|---------------------------------------------------------------------------|
B|----------------------------------------5~~-5\2----------------------------|
G|----------------------------3~~--3h4-/6-------------3~-3h4p3---------------|
D|--------------------------4~----4-----------------4~--4-----5-4h5p4h5..4~--|
A|---------------------------------------------------------------------------|
E|--14~~~~~~(\13/14)--14\2------------------------2--------------------------|

e|---------------------------------------------------------------------------|
B|-----------------5~---7(6h7)---5----4--/14-\2------------------------------|
G|------3~--3h4-/6----6--------6---6\4---/14-\2------------------------------|
D|----4---4------------------------------------------------------------------|
A|---------------------------------------------------------------------------|
E|--2------------------------------------------------------------------------|

INTRO II (Full band, full volume)
    F#                                    (A6=x02222)   A6 A  B 
e|---------------------------------------------------------------------------|
B|-----------------5----------------------------------5--7--5--4--4h5p4------|
G|------3---3h4-/6-------3---3h4p3---------3---3h4-/6---6--6--4--4------6-4b6|
D|----4---4------------4---4-------5-4---4---4-------------------------------|
A|---------------------------------------------------------------------------|
E|--2----------------2-----------------2-------------------------------------|

VERSE I
    F#                            B       B/A (x04442)
    Wake me on the softer side of heaven
    F#
    In a land of healthy minds
   e|-----(5)(4)--------|
   B|-----------(5)-----|
   G|--------------(4)--|
           A        B
    Light, carry me high

    F#                             B    B/A (x04442)
    Float me down west of the lazy river
      F#                               A       B
    Before these heavy storms seek our soaring heads

    F#(x91111119) C#m(9111199)      F#         C#m
    Breathless    morning, put your head in my hands
    F#          C#m          B           
    Night grows stale by the break of the dawn
[ Tab from: http://www.guitartabs.cc/tabs/s/sleepy_sun/marina_tab_ver_2.html ]
INTERLUDE I (Full band, 2 lines for the guitar)
    F#           B             F      B
/e|-------------------------------------------------------|
|B|-------------------------------------------------------|
|G|------(6)--------------------(6)-----------------------|
|D|--9\--9b11~r9-9-9-7---7------9b11--9-9-9-7-6-7-6-------|
|A|--9\----------------9---9------------------------7-9---|
|E|-----2----------------------2--------------------------|
+
|e|-------------------------------------------------------|
|B|-------------------------------------------------------|
|G|----------------------4-6--------------------4-6-------|
|D|-------------------------------------------------------|
|A|----------2-4-----------------------2-4----------------|
\E|-----2-5--------------------2--5-----------------------|
        
        F           B             A             B 
/e|------(9)----------------------------------------------|
|B|-------12b14~r12-12-10-9-10-9--7----5--------7---------|
|G|-------------------------------------------------------|
|D|-------------------------------------------------------|
|A|-------------------------------------------------------|
|E|-----2-------------------------------------------------|
+
|e|-------------------------------------------------------|
|B|-------------------------------------------------------|
|G|-----------------------4-6-----6b7-6b7r6p4-------------|
|D|---------------------------------------------6---------|
|A|------------2-4----------------------------------------|
\E|-----2-5-----------------------------------------------|

VERSE II
    F# B B/A, F# A B
    F#                                 B       B/A (x04442)
    Take me where your eyes are always blooming
        F#                (F#7)          
    The golden leaves, the red pine trees
   e|---(4h7p4)--------------------------|
   B|---------(5)------------------------|
   G|------------(6-4-6/11-11b13~r11p9)--|
   D|--------------------(11)--------(11)|
         A          B
    What dreams may come

      F#                                  B   B/A (x04442)
    I wonder where we ll wind up when it s over
    F#                                  A        B
    Falling like the stars right out of heaven s mouth

    F#(x91111119) C#m(9111199)      F#         C#m
    Breathless    morning, put your head in my hands
    F#          C#m          B           
    Night grows stale by the break of the dawn

    F#            C#m      F#         C#m
    Breathless    morning, Breathless Morning  
    F#            C#m      B
    Breathless    morning
    
BREAK(OUT OF THE FEVER) (dance)

    Fever, fever, fever, flood the door
    Shiny, shiny, shiny crack of light
    Outside flushes white
    Warmer tones than before
    Outline flushes free
    Free of light, free of me

INTERLUDE II
          F#A BC#mEF#  F#A  B  C#mE B
/e|--------------------------------------------------|
|B|--------------------------------------------------|
|G|----------------------------9--11-14----16b18-----|
|D|--------------------7-9--11-----------------------|
|A|-------------4-7-9--------------------------------|
|E|--14~~-2-5-7--------------------------------------|
+
|e|--------------------------------------------------|
|B|----------------------------------14-pb12-r10-----|
|G|-------------------------9--11-14-----------------|
|D|------------------9h11----------------------------|
|A|-------------4-7-9--------------------------------|
\E|-------2-5-7--------------------------------------|

    F#                                    (A6=x02222)   A6 A  B 
e|---------------------------------------------------------------------------|
B|-----------------5----------------------------------5--7--5--4--4h5p4------|
G|------3---3h4-/6-------3---3h4p3---------3---3h4-/6---6--6--4--4------6-4--|
D|----4---4------------4---4-------5-4---4---4-------------------------------|
A|---------------------------------------------------------------------------|
E|--2----------------2-----------------2-------------------------------------|
(repeat this passage twice)

OUTRO (Guitar 1 on solo, guitar 2 on tremolo picking)
     F#   A                     F#          A           F#           C#m    B    
/e|--9-----------------------------------------------------------------------|
|B|--12b14----12-12-10-9-10-9-9-9h10p9----------------------10-12b14r1210--14|
|G|--(repeat---------------------------11-9-8h9p8-6-8-9-11-13-----------11-14|
|D|---3 times)-------------------------------------------------------------16|
|A|--------------------------------------------------------------------------|
|E|--------------------------------------------------------------------------|
+
|e|--------------------------------------------------------------------------|
|B|--------------------------------------------------------------------------|
|G|--------------------------------------------------------------------------|
|D|--8-9-11-12-11-9-8-9-11-12-11-9-8-9-11-13-14-16-18-16-13------------------|
|A|--------------------------------------------------------------------------|
\E|--------------------------------------------------------------------------|

************************************

| /   slide up
| \   slide down
| h   hammer-on
| p   pull-off
| ~   vibrato
| +   harmonic
| x   Mute note
| B   Bend
| pb  Pre-bend
| br  Bend release| pbr Pre-bend release
| brb Bend release bend

************************************
Comments