Sleepy Jackson - Vampire Racecourse Chords & Tabs

 

Vampire Racecourse Chords & Tabs

Sleepy Jackson Chords & Tabs

Version: 1 Type: Tab 0 ratings
1 star 2 stars 3 stars 4 stars 5 stars
comments

Vampire Racecourse Tab

   
tabbed by: dean chittick
song: vampire racecourse
album: lovers
artist: sleepy jackson
tuning: standard

the first chord your hear is "D" then the song starts

verse:
 A        D        A        D        A        D
-0--------2--------0--------2--------0--------2------- 
-2--------3--------2--------3--------2--------3------- 
-2--------2--------2--------2--------2--------2------- x2
-2--------0--------2--------0--------2---------------- 
-0-----------------0-----------------0---------------- 
------------------------------------------------------ 

there are two little bit's that get played in-between verses
[ Tab from: http://www.guitartabs.cc/tabs/s/sleepy_jackson/vampire_racecourse_tab.html ]
the first one is:
 G  D
-3--2---- 
-0--3---- 
-0--2---- 
-0--0---- 
-2------- 
-3------- 

and the second one is:
-------------- 
-------------- 
-------------- 
-------------- 
-----5-3------ 
-3-5-----5---- 

i'm not sure what the first bit to the solo is but this gets played 
underneath luke's singing
------------------------------------------------------------------- 
-7^-5----7^-5------------------------------------------------------ 
---------------7-5------------------------------------------------- 
-------------------7----------------------------------------------- 
------------------------------------------------------------------- 
-------------------------------------------------------------------

just muck around with that for the first bit. 
(E-mails:silverchair_01@hotmail.com)
Comments