Sleeping With Sirens - Your Nickel Aint Worth My Dime Chords & Tabs

 

Sleeping With Sirens Chords & Tabs

Version: 2 Type: Tab 0 ratings
1 star 2 stars 3 stars 4 stars 5 stars
comments

Your Nickel Aint Worth My Dime Tab

   
-------------------------------------------------------------------------------
Sleeping With Sirens Ė Your Nickel Ainít Worth My Dime
-------------------------------------------------------------------------------
Tabbed by: Robert
Email: robertttd@yahoo.com

Tuning: Drop D
This Song Is SUPER EASY! Except For The Solo, Im Still Tabbing it out. But for now 
heres the rest of the song.
(Verse 1) 0:02-0:19
e|---------------------------------------------------------------------------|
B|---------------------------------------------------------------------------|
G|---------------------------------------------------------------------------|
D|-----2-2-2---2-2-2-5\---0-0-0---0-0-0---2-2-2---2-2-2-5\---0-0-0-----------|
A|-----2-2-2---2-2-2-5\---0-0-0---0-0-0---2-2-2---2-2-2-5\---0-0-0-----------|
d|-----2-2-2---2-2-2-5\---0-0-0---0-0-0---2-2-2---2-2-2-5\---0-0-0-----------|

(Pre-Chorus)0:20-0:25
e|-----------------------------------|
B|-----------------------------------|
G|-----------------------------------|
D|-2~~~-5~~~--0-0-0-0-0-0-0-0-0------|
A|-2~~~-5~~~--0-0-0-0-0-0-0-0-0------|
d|-2~~~-5~~~--0-0-0-0-0-0-0-0-0------|
              * * * * * * 

 (Chorus):25-:43(x2)	:43-:50
e|-------------------|----------------|
B|-------------------|----------------|
G|-------------------|----------------|
D|-2-----5-----0-----|-2~~~/5-0~~-0---|
A|-2(x8)-5(x8)-0(x16)|-2~~~/5-0~~-0---|
d|-2-----5-----0-----|-2~~~/5-0~~-0---|

(Verse 2) 0:51-1:06
e|----------------------------------------------------|
B|----------------------------------------------------|
G|----------------------------------------------------|
D|-----2-2-2--xxxx--2-2-2-5\---0-0-0--xxxx--0-0-0-----|(x2)
A|-----2-2-2--xxxx--2-2-2-5\---0-0-0--xxxx--0-0-0-----|
d|-----2-2-2--xxxx--2-2-2-5\---0-0-0--xxxx--0-0-0-----|
[ Tab from: http://www.guitartabs.cc/tabs/s/sleeping_with_sirens/your_nickel_aint_worth_my_dime_tab_ver_2.html ]
(Pre-Chorus)1:07-1:13
e|-----------------------------------|
B|-----------------------------------|
G|-----------------------------------|
D|-2~~~-5~~~--0-0-0-0-0-0-0-0-0------|
A|-2~~~-5~~~--0-0-0-0-0-0-0-0-0------|
d|-2~~~-5~~~--0-0-0-0-0-0-0-0-0------|
	      * * * * * *

(Chorus) 1:15-1:32(x2)	1:32-1:40
e|-------------------|----------------|
B|-------------------|----------------|
G|-------------------|----------------|
D|-2-----5-----0-----|-2~~~5~~~0~~~---|
A|-2(x8)-5(x8)-0(x16)|-2~~~5~~~0~~~---|
d|-2-----5-----0-----|-2~~~5~~~0~~~---|
 
(Refrain)1:40-1:47
e|---------------------------------------------------------------------------|
B|---------------------------------------------------------------------------|
G|---------------------------------------------------------------------------|
D|-22222222-55555555-00000000-0----------------------------------------------|
A|-22222222-55555555-00000000-0----------------------------------------------|
d|-22222222-55555555-00000000-0----------------------------------------------|
   ******** ******** ********

(Solo)1:49-2:05 (Still Tabbing This Out)
Do the First Part Of The Chorus Twice For The Solo

(Chorus) 2:06-2:22(x2)
e|-------------------|
B|-------------------|
G|-------------------|
D|-2-----5-----0-----|
A|-2(x8)-5(x8)-0(x16)|
d|-2-----5-----0-----|

2:23-2:31
e|-----------------------------------|
B|-----------------------------------|
G|-----------------------------------|
D|--/22222222-/55555555-\0000000000--|
A|--/22222222-/55555555-\0000000000--|
d|--/22222222-/55555555-\0000000000--|

2:32-2:35
e|-------------|
B|-------------|
G|-------------|
D|-2-----5-----|
A|-2(x8)-5(x8)-|
d|-2-----5-----|

I just realized this whole song is in drop C. Oh well.
2:37-End
e|--------------------------------------------------------|
B|--------------------------------------------------------|
G|--------------------------------------------------------|
D|--10-10-10-10-10-10-10-10-------------10-----xxxxxx-----|
A|--10-10-10-10-10-10-10-10--x-x--x-x---10(x8)-xxxxxx-----|
d|--10-10-10-10-10-10-10-10--x-x--x-x---10-----xxxxxx-----|


************************************

| /   slide up
| \   slide down
| x   Mute note
| *   Palm Mute

************************************
Comments