Sleeper Agent - Get Burned Chords & Tabs

 

Get Burned Chords & Tabs

Sleeper Agent Chords & Tabs

Version: 2 Type: Tab 0 ratings
1 star 2 stars 3 stars 4 stars 5 stars
comments

Get Burned Tab

Intro/Chorus
Guitar 1
e-7-7-7--77-77777-7-7-7--7-7-66666--7-7-7--77-77777-7-7-7-------------|
b-7-7-7--77-77777-7-7-7--9-9-77777--7-7-7--77-77777-7-7-7-------77777-|
g-8-8-8--88-88888-8-8-8--8-8-66666--8-8-8--88-88888-8-8-8-11-11-88888-|
d-9-9-9--99-99999-9-9-9--9-9-88888--9-9-9--99-99999-9-9-9-11-11-99999-|
a---------------------------------------------------------11-11-99999-|
e----------------------------------------------------------9--9-77777-|

Guitar 2
e----------------------------|
b----------------------------|
g-11-11-11--1111-11-1111-888-|
d--x--x--x---x-x--x--x-x-xxx-|
a--9--9--9---9-9--9--9-9-666-|
e----------------------------|

Verse
Guitar 1
Part 1
e-----------------------|      |-----------------------|
b-----------------------|    T |-----------------------|
g-----------------------|3x  h |-----------------------|
d-----------------------|    e |------------------9----|
a-9-11-9-11-9-9-11-9-11-|    n |-9-11-9-11-9-9-11---11-|
e-----------------------|      |-----------------------|
[ Tab from: http://www.guitartabs.cc/tabs/s/sleeper_agent/get_burned_tab_ver_2.html ]
Part 2
e-----------------------|      |----------------------------------------------|
b-----------------------|    T |----------------------------------------------|
g-----------------------|2x  h |----------------------------------------------|
d-----------------------|    e |------------------9---------------------------|
a-9-11-9-11-9-9-11-9-11-|    n |-9-11-9-11-9-9-11---11--9-11-9-11-9-9-11-9-11-|
e-----------------------|      |----------------------------------------------|

Guitar 2
e---------------------------------|
b---------------------------------|
g-9~--9~--9~--9~--8~--8~--8~--8~--|
d-9~--9~--9~--9~--9~--9~--9~--9~--|
a-7~--7~--7~--7~--9~--9~--9~--9~--|
e-0~--0~--0~--0~--7~--7~--7~--7~--|

Bridge
e-------------------------------------|
b-------------------------------------|
g-8~----9~----8~----9~----8~----9~----|
d-9~----9~----9~----9~----9~----9~----|
a-9~----7~----9~----7~----9~----7~----|
e-7~----0~----7~----0~----7~----0~----|

Outro
e---------------------------------|
b---------------------------------|
g-9~--9~--9~--9~--8~--8~--8~--8~--|
d-9~--9~--9~--9~--9~--9~--9~--9~--|
a-7~--7~--7~--7~--9~--9~--9~--9~--|
e-0~--0~--0~--0~--7~--7~--7~--7~--|
Comments