Slayer - Witching Hour Chords & Tabs

 

Witching Hour Chords & Tabs

Slayer Chords & Tabs

Version: 1 Type: Tab 0 ratings
1 star 2 stars 3 stars 4 stars 5 stars
comments

Witching Hour Tab

   
WITCHING HOUR
LIVE INTRUSION
SLAYER
ORIGINALLY PERFORMED BY VENOM

TABBED BY RUDY GUZMAN

   
                 play 5 times  play 4 times
eb:|-------------------------|-------------------|-------------------------|
Bb:|-------------------------|-------------------|-------------------------|
Gb:|-------------------------|-------------------|-------------------------|
Db:|-9-7-9-------------------|9-7-9--------------|-------------------------|
Ab:|-7-5-7-------------------|7-5-7--------------|-999999999-9-8-777777777-|
Eb:|-------0000000000000-----|------000000000000-|-777777777-7-6-555555555-|
          pm............


eb:------------------------|
Bb:------------------------|
Gb:------------------------|
Db:------------------------|
Ab:-7-6-55555555555-5-4-3--|
Eb:-5-4-33333333333-3-2-1--|



  *--play 4 times-----*
eb:-------*-----------|-------------------------------------------|
Bb:3-times*-----------|-------------------------------------------|
Gb:-------*-----------|-------------------------------------------|
Db:-7/9-9-*-----------|-------------------------------------------|
Ab:-5/7-7-*-----------|-----0-2h3p2-----2h3p2-----0-2h3p2---------|
Eb:-------*---000000--|-2h5---------2h5-------2h5---------2h5p2p0-|
             pm.....


     play 3 times              play 4 times
eb:|-------------------------|-------------------|-------------------------|
Bb:|-------------------------|-------------------|-------------------------|
Gb:|-------------------------|-------------------|-------------------------|
Db:|-9-7-9-------------------|9-7-9--------------|-------------------------|
Ab:|-7-5-7-------------------|7-5-7--------------|-999999999-9-8-777777777-|
Eb:|-------0000000000000-----|------000000000000-|-777777777-7-6-555555555-|
          pm............



eb:------------------------|
Bb:------------------------|
Gb:------------------------|
Db:------------------------|
Ab:-7-6-55555555555-5-4-3--|
Eb:-5-4-33333333333-3-2-1--|


solo
    t           t           t       t
eb:17-12h15p12-17-12h15p12-17-15p12-17-12h15p12-etc...------|
Bb:---------------------------------------------------------|
Gb:---------------------------------------------------------|
Db:---------------------------------------------------------|
Ab:---------------------------------------------------------|
Eb:---------------------------------------------------------|


    t           t                   t           t                                                                                                          
eb:----------------------------------------------------------------|
Bb:15-10h13p10-15-10h13p10-etc...----------------------------------|
Gb:--------------------------------14-10h12p10-14-10h12p10-etc...--|
Db:----------------------------------------------------------------|
Ab:----------------------------------------------------------------|
Eb:----------------------------------------------------------------|

[ Tab from: http://www.guitartabs.cc/tabs/s/slayer/witching_hour_tab.html ]
                         bar
eb:--------------12-13b-------20b-22b~~~-------19h22p19-22-19-21-18-|
Bb:-------12-13b--------------------------5/19----------------------|
Gb:12-14b-----------------------------------------------------------|
Db:-----------------------------------------------------------------|
Ab:-----------------------0-----------------------------------------|
Eb:-----------------------------------------------------------------|


  
              
eb:21-18-20-17-20-17-19-16-19-16-18-15-18-15-17-14-17-14-16-13-16-13-|
Bb:------------------------------------------------------------------|
Gb:------------------------------------------------------------------|
Db:------------------------------------------------------------------|
Ab:------------------------------------------------------------------|
Eb:------------------------------------------------------------------|




eb:15-12-15-12-14-11-14-11-13-10-13-10-12-9-12-9-11-8-11-8-10-7-10-7|
Bb:-----------------------------------------------------------------|
Gb:-----------------------------------------------------------------|
Db:-----------------------------------------------------------------|
Ab:-----------------------------------------------------------------|
Eb:-----------------------------------------------------------------|



eb:----------------------21b~~~---------------|
Bb:17\---15b-17b-19b-21b----------------------|
Gb:-------------------------------------------|
Db:-------------------------------------------|
Ab:--------------------------------x\---------|
Eb:--------------------------------x\---------|



     play 3 times             play 4 times
eb:|-------------------------|-------------------|-------------------------|
Bb:|-------------------------|-------------------|-------------------------|
Gb:|-------------------------|-------------------|-------------------------|
Db:|-9-7-9-------------------|9-7-9--------------|-------------------------|
Ab:|-7-5-7-------------------|7-5-7--------------|-999999999-9-8-777777777-|
Eb:|-------0000000000000-----|------000000000000-|-777777777-7-6-555555555-|
          pm............            ............



eb:------------------------|
Bb:------------------------|
Gb:------------------------|
Db:------------------------|
Ab:-7-6-55555555555-5-4-3--|
Eb:-5-4-33333333333-3-2-1--|




eb:-------------------------------------------|
Bb:-------------------------------------------|
Gb:-------------------------------------------|
Db:-6-6-66-66-6\4-4-44-44-4\2-22-22-2\4-444---|
Ab:-7-7-77-77-7\5-5-55-55-5\3-33-33-3\5-555---|
Eb:-------------------------------------------|



eb:---------------------|
Bb:---------------------|
Gb:---------------------|
Db:-6----(6)---(6)------|
Ab:-7----(7)---(7)------|
Eb:---------------------|




eb:-------------------------------------------|
Bb:-------------------------------------------|
Gb:-------------------------------------------|
Db:-6-6-66-66-6\4-4-44-44-4\2-22-22-2\4-444---|
Ab:-7-7-77-77-7\5-5-55-55-5\3-33-33-3\5-555---|
Eb:-------------------------------------------|




   
eb:-------------------------------*------------------|
Bb:-------------------------------*------------------|
Gb:-------------------------------*------------------|
Db:-2-----------------------------*-9--9\------------|
Ab:-2-2-2-2-2-2-2-2-2-2-----------*-7--7\------------|
Eb:-0-0-0-0-0-0-0-0-0-0--etc....--*-0----------------|
Comments