Slayer - Wicked Chords & Tabs

 

Wicked Chords & Tabs

Slayer Chords & Tabs

Version: 1 Type: Tab 0 ratings
1 star 2 stars 3 stars 4 stars 5 stars
comments

Wicked Tab

   
Slayer
Wicked

this is a very heavy song from the european track of Diabolus In Musica


Tuning: C# Ab Db Gb Bb Eb

Pm = Palm Mute


Intro (with a little distorsion):
Eb|------------------------------------------|
Bb|------------------------------------------|
Gb|------------------------------------------|
Db|------------------------------------------|
Ab|-----0-0--------------0-0------6-5--------|
C#|--0-------6---2----0-------6--------------|

Eb|------------------------------------------|
Bb|------------------------------------------|
Gb|------------------------------------------|
Db|------------------------------------------|
Ab|-----0-0--------------0-0------3--5-6-5---|
C#|--0-------6---2----0-------6--------------|

                          2 times
Eb|------------------|------------------------|
Bb|------------------|------------------------|
Gb|------------------|-------------6-5--------|
Db|------------------|-----------------6-5----|
Ab|-----0-0----------|----0-0---------------6-|
C#|--0-------6---2---|-0-------6--------------|

Both guitars: 9x
Eb|------------------------------------------|
Bb|------------------------------------------|
Gb|------------------------------------------|
Db|-----------------------3--2---6-----------|
Ab|-----------------------3--2---6-----------|
C#|--0--1--3--1--0--1--0--3--2---6-----------|
   Pm.........................

 then this
Eb|------------------------|
Bb|------------------------|
Gb|------------------------|
Db|--0-0-0-0-0-0-0-0-0-----|
Ab|--0-0-0-0-0-0-0-0-0-----|
C#|--0-0-0-0-0-0-0-0-0-----|
   Pm.................

     Cataract blinding your eyes...
Eb|-------------------------------------|
Bb|-------------------------------------|
Gb|-------------------------------------|
Db|--0--0--0--0--0--0--0--0--0--0--0----|
Ab|--0--0--0--0--0--0--0--0--0--0--0----|
C#|--0--0--0--0--0--0--0--0--0--0--0----|
   Pm...............................


Eb|-------------------------------------|
Bb|-------------------------------------|
Gb|-------------------------------------|
Db|------------------------8-8-7--------|
Ab|------0-0-0-----5-5-4----------------|
C#|--0----------6-----------------------|
 
                          The wicked will feed the chaos...
Eb|---------------------------------------------------------|----------|
Bb|---------------------------------------------------------|----------|
Gb|---------------------------------------------------------|----------|
Db|--------------------1--0--0--0--0--0--0--0--0--0-0--1--0-|-1--0--7--|
Ab|--------------------1--0--0--0--0--0--0--0--0--0-0--1--0-|-1--0--7--|
C#|--0--1--3--1--0--1--1--0--0--0--0--0--0--0--0--0-0--1--0-|-1--0--7--|
   Pm................     .  .  .  .  .  .  .  .  . .     .      .

    Death's head shattering...
Eb|-----------------------------------|
Bb|-----------------------------------|
Gb|-----------------------------------|
Db|------------------------8-8-7------|
Ab|------0-0-0-----5-5-4--------------|
C#|--0----------6---------------------|

   ...blow to the throat...
Eb|-------------------------------|
Bb|-------------------------------|
Gb|-------------------------------|
Db|-------------------------------|
Ab|-------------------------------|
C#|--0-0-0-0-0-0-0-0-0-0-0-0-0-0--|
   Pm...........................

Eb|------------------------------------------|
Bb|------------------------------------------|
Gb|------------------------------------------|
Db|------------------------------------------|
Ab|-----0-0--------------0-0------6-5--------|
C#|--0-------6---2----0-------6--------------|

Eb|------------------------------------------|
Bb|------------------------------------------|
Gb|------------------------------------------|
Db|------------------------------------------|
Ab|-----0-0--------------0-0------3--5-6-5---|
C#|--0-------6---2----0-------6--------------|

                          2 times
Eb|------------------|------------------------|
Bb|------------------|------------------------|
Gb|------------------|-------------6-5--------|
Db|------------------|-----------------6-5----|
Ab|-----0-0----------|----0-0---------------6-|
C#|--0-------6---2---|-0-------6--------------|

                       The wicked will feed the chaos...
Eb|---------------------------------------------------------|----------|
Bb|---------------------------------------------------------|----------|
Gb|---------------------------------------------------------|----------|
Db|--------------------1--0--0--0--0--0--0--0--0--0-0--1--0-|-1--0--7--|
Ab|--------------------1--0--0--0--0--0--0--0--0--0-0--1--0-|-1--0--7--|
C#|--0--1--3--1--0--1--1--0--0--0--0--0--0--0--0--0-0--1--0-|-1--0--7--|
   Pm................     .  .  .  .  .  .  .  .  . .     .      .

[ Tab from: http://www.guitartabs.cc/tabs/s/slayer/wicked_tab.html ]
Play this under the solo:
                       
Eb|---------------------------|------------|
Bb|---------------------------|------------|
Gb|---------------------------|------------|
Db|1----------------------1---|-1-------7--|
Ab|1----------------------1---|-1-------7--|
C#|1--0-0-0-0-0-0-0-0-0-0-1-0-|-1--0-0--7--|
    Pm...................   .      . .

    2x
Eb|-------------------------------------|
Bb|-------------------------------------|
Gb|-------------------------------------|
Db|------------------------8-8-9-7------|
Ab|------0-0-0-----5-5-5-4--------------|
C#|--0----------6-----------------------|

  Era of total destruction has slowly begun...
Eb|----------------------------------------------|
Bb|----------------------------------------------|
Gb|----------------------------------------------|
Db|--1--1--1--1--1--1--1--1--1--4--3--0----------|
Ab|--1--1--1--1--1--1--1--1--1--4--3--0----------|
C#|--1--1--1--1--1--1--1--1--1--4--3--0----------|
   Pm...............................

     
Eb|-------------------------------------|
Bb|-------------------------------------|
Gb|-------------------------------------|
Db|------------------------8-8-9-7------|
Ab|------0-0-0-----5-5-5-4--------------|
C#|--0----------6-----------------------|

  Order out of chaos the true will of the beast...
Eb|----------------------------------------------|
Bb|----------------------------------------------|
Gb|----------------------------------------------|
Db|--1--1--1--1--1--1--1--1--1--4--3--0----------|
Ab|--1--1--1--1--1--1--1--1--1--4--3--0----------|
C#|--1--1--1--1--1--1--1--1--1--4--3--0----------|
   Pm...............................

Eb|-------------------------------------|
Bb|-------------------------------------|
Gb|-------------------------------------|
Db|------------------------8-8-9-7------|
Ab|------0-0-0-----5-5-5-4--------------|
C#|--0----------6-----------------------|

     Ten bleeding hearts...
Eb|-----------------------------|
Bb|-----------------------------|
Gb|-----------------------------|
Db|---7--3--2--1-1-1------------|
Ab|---7--3--2--1-1-1------------|
C#|---7--3--2--1-1-1------------|
   Pm          .....

   Era of total destruction has never resist...
Eb|----------------------------------------------|
Bb|----------------------------------------------|
Gb|----------------------------------------------|
Db|--1--1--1--1--1--1--1--1--1--4--3--0----------|
Ab|--1--1--1--1--1--1--1--1--1--4--3--0----------|
C#|--1--1--1--1--1--1--1--1--1--4--3--0----------|
   Pm...............................

Eb|-------------------------------------|
Bb|-------------------------------------|
Gb|-------------------------------------|
Db|------------------------8-8-9-7------|
Ab|------0-0-0-----5-5-5-4--------------|
C#|--0----------6-----------------------|

  Order out of chaos the true will of the beast... 
Eb|----------------------------------------------|
Bb|----------------------------------------------|
Gb|----------------------------------------------|
Db|--1--1--1--1--1--1--1--1--1--4--3--0----------|
Ab|--1--1--1--1--1--1--1--1--1--4--3--0----------|
C#|--1--1--1--1--1--1--1--1--1--4--3--0----------|
   Pm...............................


Eb|-------------------------------------|
Bb|-------------------------------------|
Gb|-------------------------------------|
Db|------------------------8-8-9-7------|
Ab|------0-0-0-----5-5-5-4--------------|
C#|--0----------6-----------------------|


     Ten bleeding hearts...
Eb|-----------------------------|
Bb|-----------------------------|
Gb|-----------------------------|
Db|---7--3--2--1-1-1------------|
Ab|---7--3--2--1-1-1------------|
C#|---7--3--2--1-1-1------------|
   Pm          .....

Eb|-----------------------------|
Bb|-----------------------------|
Gb|-----------------------------|
Db|--3-3-3--6-6-6--9-9-9--------|
Ab|--3-3-3--6-6-6--9-9-9--------|
C#|--3-3-3--6-6-6--9-9-9--------|

     Famine, plagues, war and death...
Eb|----------------------------------------------|
Bb|----------------------------------------------|
Gb|----------------------------------------------|
Db|--1--1--1--1--1--1--1--1--1--4--3--0----------|
Ab|--1--1--1--1--1--1--1--1--1--4--3--0----------|
C#|--1--1--1--1--1--1--1--1--1--4--3--0----------|
   Pm...............................


Eb|-------------------------------------|
Bb|-------------------------------------|
Gb|-------------------------------------|
Db|------------------------8-8-9-7------|
Ab|------0-0-0-----5-5-5-4--------------|
C#|--0----------6-----------------------|


     Ten bleeding hearts...
Eb|-----------------------------|
Bb|-----------------------------|
Gb|-----------------------------|
Db|---7--3--2--1-1-1------------|
Ab|---7--3--2--1-1-1------------|
C#|---7--3--2--1-1-1------------|
   Pm          .....
Comments