Slayer - War Ensemble Chords & Tabs

 

War Ensemble Chords & Tabs

Slayer Chords & Tabs

Version: 3 Type: Tab 0 ratings
1 star 2 stars 3 stars 4 stars 5 stars
comments

War Ensemble Tab

   
Artist: Slayer
Song: War Ensemble
Album: Seasons in the Abyss
from: portageepride@hotmail.com
                                     


                                 WAR ENSEMBLE

Not all the riffs are here in certain order, I left the solo  
rhythm out since there is no point in it yet. 
TIMING IS WAY OFF. If you're a slayer fan, You'll know these 
riffs when you start to play em. 

Tune down 1/2 step 
  
P.M.--| = Palm Mute 
p = Pull Off 


riff a   P.M.--      ------      ----       -------| 
Eb|-------------------------------------------------|------------| 
Bb|-------------------------------------------------|------------| 
Gb|-------------------------------------------------|------------| 
Db|-------------------------------------------------|-8--5-------| 
Ab|-------------------------------------------------|-8--5-------| 
Eb|-3p1p0-0-0-0-3p1p0-0-0-0-3p1p0-0--0-0-3p1p0-0-0-0|-6--7-------| 
                                  
P.M.----------------------| 
Eb|--------------------------------------------------------------|  
Bb|--------------------------------------------------------------|  
Gb|--------------------------------------------------------------|  
Db|--------------------------------------------------------------|  
Ab|-------2--1---------------------------------------------------|  
Eb|-0--3-------0--3--2--1----------------------------------------| 

Riff B 
P.M.  -      -      -            -       -      -| 
Eb|--------------------------------------------------------------|  
Bb|--------------------------------------------------------------|  
Gb|--------------------------------------------------------------|  
Db|---------------------------------5-4----6-5----9-8--8\--------|
Ab|2----5-4----6-5----9-8---8\-2-0--3-2--0-4-3--0-7-6--6\--------|
Eb|0--0-3-2--0-4-3--0-7-6---6\-0---------------------------------|
                                                   
P.M. -----   -----   -   -----   -----   -----   -----   -----| 
Eb|--------------------------------------------------------------|  
Bb|--------------------------------------------------------------|  
Gb|--------------------------------------------------------------|  
Db|--------------------------------------------------------------|  
Ab|3-------3-------3---6-------6-------5-------5-------4-------4-|  
Eb|--3-3-3---3-3-3---3---3-3-3---3-3-3---3-3-3---3-3-3---3-3-3---| 
                                                                 
P.M.----    -|                    
Eb|-----------|-----------------|--------------------------------|  
Bb|-----------|-----------------|--------------------------------|  
Gb|-----------|-----------------|--------------------------------|  
Db|-----------|-----------------|--------------------------------|  
Ab|--------4--|-----------------|-2--2--2---2--2--2--2-----------|  
Eb|-3-3-3----3|-----------------|-0--0--0---0--0--0--0-----------| 
               PUT RIFF A HERE ^                       
RIFF-C 
P.M.  -       -     -           HEAVY P.M.----------------------| 
Eb|--------------------------------------------------------------|  
Bb|--------------------------------------------------------------|  
Gb|--------------------------------------------------------------|  
Db|--------------------------------------------------------------|  
Ab|-2----5-4----6-5----9-8--8\--2-2-2-2-2-2-2-2-2-2-2-2-2-2-2-2--|
Eb|-0--0-3-2--0-4-3--0-7-6--6\--0-0-0-0-0-0-0-0-0-0-0-0-0-0-0-0--|

P.M.  -      --    ---         HEAVY P.M.--| 
Eb|--------------------------------------------------------------|  
Bb|--------------------------------------------------------------|  
Gb|--------------------------------------------------------------|  
Db|-------------------------------------------------9-9-9-9-9-9-9|  
Ab|-2----5-4----6-5----9-8--8---2-2-2-2-2-2-7-7-7-7-7-7-7-7-7-7-7|  
Eb|-0--0-3-2--0-4-3--0-7-6--6\--0-0-0-0-0-0-0-0-0-0-0-0-0-0-0-0-0|
[ Tab from: http://www.guitartabs.cc/tabs/s/slayer/war_ensemble_tab_ver_3.html ]
==>RIFF B w/ "The sport is war, Total war" 
  
P.M.------------------------------| 
Eb|--------------------------------------------------------------|  
Bb|--------------------------------------------------------------|  
Gb|--------------------------------------------------------------|  
Db|----8-7-------------------------------------------------------|  
Ab|----8-7-----6--5-----8-7---7-6----5--7--8---------------------|  
Eb|0--------0--6--5--0--8-7-0-7-6----3--5--6---------------------| 
                                    
P.M.------------------------------| 
Eb|--------------------------------------------------------------|  
Bb|--------------------------------------------------------------|  
Gb|--------------------------------------------------------------|  
Db|-----8-7------------------------------------------------------|  
Ab|-----8-7----6--5-----8-7---7-6---5--8--6----------------------|  
Eb|0--------0--6--5--0--8-7-0-7-6---3--6--4----------------------| 
                             
P.M.------------------------------| 
Eb|--------------------------------------------------------------|  
Bb|--------------------------------------------------------------|  
Gb|--------------------------------------------------------------|  
Db|-----8-7------------------------------------------------------|  
Ab|-----8-7----6--5-----8-7---7-6----8--6--5---------------------|  
Eb|0--------0--6--5--0--8-7-0-7-6----6--4--3---------------------| 

W/Lyrics "Be Dead Fiend" 
P.M.-------------------------------| 
Eb|--------------------------------------------------------------|  
Bb|--------------------------------------------------------------|  
Gb|--------------------------------------------------------------|  
Db|-----8-7------------------------------------------------------|  
Ab|-----8-7----6--5-----8-7---7-6----3--3------------------------|  
Eb|0--------0--6--5--0--8-7-0-7-6----1--1------------------------| 

     P.M--------------------------| 
Eb|--------------------------------------------------------------|  
Bb|--------------------------------------------------------------|  
Gb|--------------------------------------------------------------|  
Db|--------------------------------------------------------------|  
Ab|2---------------------------------5-7-8-----------------------|  
Eb|0----0-0-0-0-0-0-0-0-0-0-0-0-0----3-5-6-----------------------| 

     P.M--------------------------|                                           
Eb|--------------------------------------------------------------|  
Bb|--------------------------------------------------------------|  
Gb|--------------------------------------------------------------|  
Db|--------------------------------------------------------------|  
Ab|2---------------------------------5-8-7-----------------------|  
Eb|0----0-0-0-0-0-0-0-0-0-0-0-0-0----3-6-5-----------------------| 
                                    
     P.M--------------------------|        
Eb|--------------------------------------------------------------|  
Bb|--------------------------------------------------------------|  
Gb|--------------------------------------------------------------|  
Db|--------------------------------------------------------------|  
Ab|2---------------------------------8-5-5-----------------------|  
Eb|0----0-0-0-0-0-0-0-0-0-0-0-0-0----6-7-3-----------------------| 

     P.M--------------------------| 
Eb|--------------------------------------------------------------|  
Bb|--------------------------------------------------------------|  
Gb|--------------------------------------------------------------|  
Db|--------------------------------------------------------------|  
Ab|2--------------------------------3-----3----------------------|  
Eb|0----0-0-0-0-0-0-0-0-0-0-0-0-0---1-----1----------------------| 

W/ Third Verse Lyrics                      
P.M.   ------   ------ -   -----   ------  -   -----   ------ 
Eb|--------------------------------------------------------------|  
Bb|--------------------------------------------------------------|  
Gb|--------------------------------------------------------------|  
Db|-2--------2-------2---5-------5-------5---4-------4-------4---|  
Ab|-2--------2-------2---5-------5-------5---4-------4-------4---|  
Eb|----0-0-0---0-0-0---0---0-0-0---0-0-0---0---0-0-0---0-0-0---0-| 

P.M.  ----   ------   --                                         
Eb|--------------------------------------------------------------|  
Bb|--------------------------------------------------------------|  
Gb|--------------------------------------------------------------|  
Db|-3-------3-------3--------------------------------------------|  
Ab|-3-------3-------3--------------------------------------------|  
Eb|---0-0-0---0-0-0---0------------------------------------------|
Comments