Slayer - Undisputed Attitude Chords & Tabs

 

Undisputed Attitude Chords & Tabs

Slayer Chords & Tabs

Version: 1 Type: Tab 0 ratings
1 star 2 stars 3 stars 4 stars 5 stars
comments

Undisputed Attitude Tab

   
----------------------------------------------------------------------------
                        UNDISPUTED ATTITUDE - Slayer
----------------------------------------------------------------------------

SONGS:

1. Disintegration/Free Money
2. Verbal Abuse/Leeches
3. Abolish Government/Superficial Love
4. Can't Stand You
5. Ddamm
6. Guilty of Being White
7. I Hate You
8. Filler/I Don't Want to Hear It
9. Sick Boy
10. Spiritual Law
11. Mr. Freeze
12. Violent Pacification
13. Richard Hung Himself
14. I'm Gonna Be Your God
15. Gemini 

---------------------------------------------------------------------------
                          Disintegration/Free Money                       
---------------------------------------------------------------------------

Intro: (Fade in)
                  Disintegration you bastard
E--------------------------|-----------------------|
B--------------------------|-----------------------|
G--------------------------|-----------------------|
D--(2)---------------------|--(2)------------------|
A--(2)---------------------|--(2)------------------|
E--(0)---------------------|--(0)------------------|

Riff 1:
E--------------------------|--------------------------|
B--------------------------|--------------------------|
G--------------------------|--------------------------|
D--9--9--9--9--2--2--2--2--|--5--5--5--5--7--7--7--7--|
A--7--7--7--7--0--0--0--0--|--3--3--3--3--5--5--5--5--|
E--------------------------|--------------------------|

Riff 2:
E--------------------------------------------|
B--------------------------------------------|
G--------------------------------------6-----|
D--------------------------------------6-----|
A--5--5--5--5--5--5--5--5--5--5--5--5--4-----|
E--------------------------------------------|

E--------------------------------------------|
B--------------------------------------------|
G--------------------------------------10----|
D--------------------------------------10----|
A--5--5--5--5--5--5--5--5--5--5--5--5--8-----|
E--------------------------------------------|

Riff 3:
E---------------------|---------------------|
B---------------------|---------------------|
G--7------------------|--7------------------|
D--5---7---9---9---9--|--5---7---9---9---9--|
A------5---7---7---7--|------5---7---7---7--|
E---------------------|---------------------|

Riff 4:
E-------------------------------------------------|
B-------------------------------------------------|
G-------------------------------------------------|
D--5---7---5---7----------------------------------|
A--3---5---3---5---7-7-7-7-7-7-7-5-7-7-7-7-7-7-7--|
E-------------------------------------------------|

Riff 5:
E---------------------|---------------------|
B---------------------|---------------------|
G---------------------|---------------------|
D--2---7---4---4---4--|--2---7---4---4---4--|
A--0---5---2---2---2--|--0---5---2---2---2--|
E---------------------|---------------------|

E---------------------|-----------------|
B---------------------|-----------------|
G---------------------|-----------------|
D--2---7---4---4---4--|--2---4---2---4--|
A--0---5---2---2---2--|--0---2---0---2--|
E---------------------|-----------------|

Songstructure:
Intro
Riff 1 (6 times)
Riff 2 (2 times)
Riff 1 (6 times)
Riff 2 (2 times)
Bass-riff
Riff 3 (2 times)
Riff 4 (2 times)
Riff 3 (2 times)
Riff 5
Riff 3 (3 times)
Riff 4 (2 times)
Riff 3 (3 1/2 times)
END


----------------------------------------------------------------------------
                             Verbal Abuse/Leeches
----------------------------------------------------------------------------

Riff 1:
E-----------------------------------------------|
B-----------------------------------------------|
G-----------------------------------------------|
D-----7--5--4-----------------------------------|
A--7--5--3--2-----------------------------------|
E--5-----------5-5-5-5-5-5-5-3-5-5-5-5-5-5-5-5--|

Riff 2:
E---------------------------------------------|
B---------------------------------------------|
G---------------------------------------------|
D--7----5-------------------------------------|
A--5----3-------------------------------------|
E------------5-5-5-5-5-5-5-3-5-5-5-5-5-5-5-5--|

Riff 3:
E---------------------------------------------|
B---------------------------------------------|
G---------------------------------------------|
D---------------------------------------------|
A--7----5-------------------------------------|
E--5----3----5-5-5-5-5-5-5-3-5-5-5-5-5-5-5-5--|

Bridge:
E-------------|
B-------------|
G-------------|
D--7-7-7-7-7--|
A--5-5-5-5-5--|
E-------------|

Riff 4:
E---------------------------------------------------|
B---------------------------------------------------|
G---------------------------------------------------|
D---------------------------------------------------|
A---------------------------------------------------|
E--5-5-5-5-5-5-5-3-5-5-5-5-5-5-5-3-5-5-5-5-5-5-5-5--|

E---------------------------|-----------------------------------|
B---------------------------|-----------------------------------|
G---------------------------|-----------------------------------|
D---------------------------|-----------------------------------|
A--5-5-5-5-3-3-3-3-3-3-3-3--|----------5-5-5-5-3-3-3-3-3-3-3-3--|
E---------------------------|--5-5-5-5--------------------------|

E-----------------------------------|-----------------------------------|
B-----------------------------------|-----------------------------------|
G-----------------------------------|-----------------------------------|
D-----------------------------------|-----------------------------------|
A----------5-5-5-5-3-3-3-3-3-3-3-3--|----------5-5-5-5-3-3-3-3-3-3-3-3--|
E--5-5-5-5--------------------------|--5-5-5-5--------------------------|

Riff 5:
E-----------------------------------|
B-----------------------------------|
G-----------------------------------|
D--4--------------2-2-2-------------|
A--2--2-2-2-2-2-2-0-0-0-5----5-5----|
E-----------------------3----3-3----|

Riff 6:
E------------------------------------|
B------------------------------------|
G------------------------------------|
D--------------------------7----5----|
A--2-2-2-2-2-2-2-2-7-7-7-7-5----3----|
E------------------------------------|

Riff 7:
E-----------------------------------|------------------------------|
B-----------------------------------|------------------------------|
G-----------------------------------|------------------------------|
D-----------------------------------|------------------4--4--4--4--|
A--5-5-5-5-5-5-5-5-7-7-7-7-7-7-7-7--|--0-0-0-0-0-0-0-0-2--2--2--2--|
E-----------------------------------|------------------------------|

Songstructure:
Riff 1 (2 times)
Riff 2 (2 times)
Riff 3 (2 times)
Riff 1
Bridge
Riff 4
Riff 1 (2 times)
Riff 2 (2 times)
Riff 3 (2 times)
Riff 1
Bridge
Riff 4
Riff 5 (4 times)
Riff 6 (4 times)
Riff 7
Riff 6 (3 times)
Riff 5 (4 times)
Riff 6 (4 times)
Riff 7
END


----------------------------------------------------------------------------
                         Abolish Government/Superficial Love
----------------------------------------------------------------------------

\=slide down
/=slide up

Riff A:
----------------------------------------------------------------------------
--------------------------------(x3)----------------------------------------
----------------------------------------------------------------------------
--14--14--14--14--14--14--14----14--14--14--15------------------------------
--14--14--14--14--14--14--14----12--12--12--13---15-------------------------
--12--12--12--12--12--12--12---------------------13-------------------------

----------------------------------------------------------------------------
----------------------------------------------------------------------------
----------------------------------------------------------------------------
--14--14--14--14--14--14--14----16--15--------------------------------------
--14--14--14--14--14--14--14----16--15--------------------------------------
--12--12--12--12--12--12--12----14--13--------------------------------------
Repeat Riff A 2 more times an octave lower, and palm mute.

Riff B:
---------------------------------------------------------------------------
---------(x4)--------------------------------------------------------------
---------------------------------------------------------------------------
--9--9--10-10---9--9--9--9--7--7-------------------------------------------
--9--9---8--8---7--7--7--7--5--7-------------------------------------------
--7--7-------------------------5-------------------------------------------

Riff C:
-----------------------------------------
---------------(x4)----------------------
-----------------------------------------
--9--9-10-10---10-10-10--11-11-11-11-----
--7--7--8--8---10-10-10--11-11-11-11-----
----------------8--8--8---9--9--9--9-----
(Riff B)
Riff D:
------------------------------------------
------------------------------------------
------------------------------------------
--9--10---7--7--7--7--7--7--7--7--7-------
--9---8---7--7--7--7--7--7--7--7--7-------
--7-------5--5--5--5--5--5--5--5--5-------

------------------------------------------
------------------------------------------
------------------------------------------
--9--10---7--7--7--7--7--7--7--7--7-------
--9---8---7--7--7--7--7--7--7--7--7-------
--7-------5--5--5--5--5--5--5--5--5-------

------------------------------------------
------------------------------------------
------------------------------------------
--9--10---7--7--7--7--7--7--7--7--7-------
--9---8---7--7--7--7--7--7--7--7--7-------
--7-------5--5--5--5--5--5--5--5--5-------

--------------------------------------------------------------------------
--------------------------------------------------------------------------
--------------------------------------------------------------------------
--9--10---7--7--7--7--7--7--7--7--7-----9--\------------------------------
--9---8---7--7--7--7--7--7--7--7--7-----9--\------------------------------
--7-------5--5--5--5--5--5--5--5--5-----7--\------------------------------

Riff B
Riff C
---------------------------------------------------------------------------|
---------------------------------------------------------------------------|
---------------------------------------------------------------------------|
--7------------------------------------------------------------------------|
--7---10--\----------------------------------------------------------------|
--9----8--\----------------------------------------------------------------|


----------------------------------------------------------------------------
                              Cant Stand You
----------------------------------------------------------------------------

Tune down 1/2 step!



  Can`t stand the way...
Eb|---------------------|
Bb|---------------------|
Gb|---------------------|
Db|---------------------|
Ab|--2---4--5--4--------|
Eb|---------------------|

  
    Do I think you`re dick yeah...
Eb|-------------------------------|
Bb|-------------------------------|
Gb|-------------------------------|
Db|-------------------------------|
Ab|--33333--44444----77777--66666-|
Eb|-------------------------------|


  Can`t stand the way...
Eb|---------------------|
Bb|---------------------|
Gb|---------------------|
Db|---------------------|
Ab|--2---4--5--4--------|
Eb|---------------------|


    Do I think you`re shit yeah...
Eb|----------------||---------------|
Bb|----------------||---------------|
Gb|----------------||---------------|
Db|----------------||---------------|
Ab|--33333--44444--||--77777--66666-|
Eb|----------------||---------------|

  I open my mouth after a while...
Eb|-------------| |------------------|
Bb|-------------| |------------------|
Gb|-------------| |------------------|
Db|-------------| |------------------|
Ab|--7---10--9--| |--7---10--9--7--8-|
Eb|--5---8---7--| |--5---8---7--5--6-|


 Can`t stand the way...
Eb|---------------------|
Bb|---------------------|
Gb|---------------------|
Db|---------------------|
Ab|--2---4--5--4--------|
Eb|---------------------|

  
    Do I think you`re sick yeah...
Eb|-------------------------------|
Bb|-------------------------------|
Gb|-------------------------------|
Db|-------------------------------|
Ab|--33333--44444----77777--66666-|
Eb|-------------------------------|


----------------------------------------------------------------------------
                                 Ddamm
----------------------------------------------------------------------------

Tune down 1/2 step!


   Swerwing through the street...
Eb|------------------------------|
Bb|------------------------------|
Gb|------------------------------|
Db|-----------8--7-7--6-6--------|
Ab|--5-5--6---6--5-5--4-4--------|
Eb|--3-3--4----------------------|

Hit her car, smash her up...
Eb|---------------------|
Bb|---------------------|
Gb|---------------------|
Db|---------------------|
Ab|-----5--4------------|
Eb|--3-------4----------|


Solo


Can't find any beer, it`s way past...
Eb|------------------------------|
Bb|------------------------------|
Gb|------------------------------|
Db|-----------8--7-7--6-6--------|
Ab|--5-5--6---6--5-5--4-4--------|
Eb|--3-3--4----------------------|


Hit her car, smash her up...
Eb|---------------------|
Bb|---------------------|
Gb|---------------------|
Db|---------------------|
Ab|-----5--4------------|
Eb|--3-------4----------|


----------------------------------------------------------------------------
                         Guilty of Being White
----------------------------------------------------------------------------

Tune down 1/2 step    

This is a very fast song.

Verse:
    Aaaaahh...   I'm sorry for something i didnīt do...
Eb|-----------------------------------------------------|
Ab|-----------------------------------------------------|
Db|-----------------------------------------------------|
Gb|------------------7------10--------------------------|
Bb|--------------5---5--8---8---------------------------|
Eb|--------------3------6-------------------------------|


Chorus:  4x
               Guilty of being white...
Eb|-----------------------------------------------------|
Ab|-----------------------------------------------------|
Db|-----------------------------------------------------|
Gb|-----7-7---5-----------------------------------------|
Bb|-----5-5---3--3--5-5-5-5-5-5-------------------------|
Eb|--------------1--3-3-3-3-3-3-------------------------|


Verse:
         I'm sorry for something i didnīt do...
Eb|-----------------------------------------------------|
Ab|-----------------------------------------------------|
Db|-----------------------------------------------------|
Gb|------------------7------10--------------------------|
Bb|--------------5---5--8---8---------------------------|
Eb|--------------3------6-------------------------------|

Chorus:  4x
               Guilty of being white...
Eb|-----------------------------------------------------|
Ab|-----------------------------------------------------|
Db|-----------------------------------------------------|
Gb|-----7-7---5-----------------------------------------|
Bb|-----5-5---3--3--5-5-5-5-5-5-------------------------|
Eb|--------------1--3-3-3-3-3-3-------------------------|


             I'm convicted of a racist crime...
Eb|-----------------------------------------------------|
Ab|-----------------------------------------------------|
Db|-----------------------------------------------------|
Gb|----------------5------------------------------------|
Bb|----7---2---3---3-5----------------------------------|
Eb|----5---0---1-----3----------------------------------|


Verse:
         I'm sorry for something i didnīt do...
Eb|-----------------------------------------------------|
Ab|-----------------------------------------------------|
Db|-----------------------------------------------------|
Gb|------------------7------10--------------------------|
Bb|--------------5---5--8---8---------------------------|
Eb|--------------3------6-------------------------------|

Chorus:  4x
               Guilty of being white...
Eb|-----------------------------------------------------|
Ab|-----------------------------------------------------|
Db|-----------------------------------------------------|
Gb|-----7-7---5-----------------------------------------|
Bb|-----5-5---3--3--5-5-5-5-5-5-------------------------|
Eb|--------------1--3-3-3-3-3-3-------------------------|


----------------------------------------------------------------------------
                              I Hate You
----------------------------------------------------------------------------

E|-----------------------------------------------------------|
A|-----------------------------------------------------------|
D|-----------------------------------------------------------|
G|-----------------------------------------------------------|
B|-3-3-3-3-3-3-3--4-4-4-4-4-4-4--6-6-6--4-4-4--3-------------|
E|-1-1-1-1-1-1-1--2-2-2-2-2-2-2--4-4-4--2-2-2--1-------------|


Chorus:
|-------------------------------------------------------------------|
|--------------------------------------------4-4-4-4-4-4-4----------|
|-------------------------------------------------------------------|
|-3-3-3-3-3-3-3--8-8-8-8-8-8-8--6-6-6-6-6-6-6-----------------------|
|-1-1-1-1-1-1-1--6-6-6-6-6-6-6--4-4-4-4-4-4-4-----------------------|
|-------------------------------------------------------------------|


I couldnīt figure out the solo. Itīs a very hard solo.



----------------------------------------------------------------------------
                       Filler/I Don't Want to Hear It
----------------------------------------------------------------------------

Tune down 1/2 step.


FILLER

Intro: bass   twice.



VERSE:
Eb|--------------------------------------------------------|
Ab|--------------------------------------------------------|
Db|--------------------------------------------------------|
Gb|-11-11-11-11-11-6-6-6-9---------------------------------|
Bb|-9--9--9--9--9--4-4-4-7-7-7-7---------------------------|
Eb|------------------------5-5-5---------------------------|



CHORUS: 2x
Eb|--------------------------------------------------------|
Ab|--------------------------------------------------------|
Db|--------------------------------------------------------|
Gb|-9--7--2------------------------------------------------|
Bb|-7--5--0--4---------------------------------------------|
Eb|----------2---------------------------------------------|

Verse

Chorus 2x

Solo

Verse 4x

Chorus 4x




I DON`T WANT TO HEAR IT

Intro: bass

Verse:   
      I Donīt wanna hear it  All you do is talk about you...
Eb|--------------------------------------------------------|
Ab|--------------------------------------------------------|
Db|--------------4-4-4-9-9-9-------------------------------|
Gb|--------------2-2-2-7-7-7-------------------------------|
Bb|-4-4---4-4-4--------------------------------------------|
Eb|-2-2-0-2-2-2--------------------------------------------|

Chorus:    
       I Donīt wanna hear it  I know you're full of shit... 
Eb|--------------------------------------------------------|
Ab|--------------------------------------------------------|
Db|--------------------------------------------------------|
Gb|--12-12--9----------------------------------------------|
Bb|--10-10--7-9-12-12-12-12-12-12--------------------------|
Eb|-----------7-10-10-10-10-10-10--------------------------|

Verse

Chorus

Verse

Chorus



----------------------------------------------------------------------------
                                 Sick Boy
----------------------------------------------------------------------------

Tune down 1/2 step


Intro:  8x

Eb|------------------------------------------------|
Ab|------------------------------------------------|
Db|------------------------------------------------|
Gb|------------------------------------------------|
Bb|----7-5-4-5-------------------------------------|
Eb|--0--0-0-0--------------------------------------|


Verse:
      Well I'm searching through my bed...
Eb|------------------------------------------------|
Ab|------------------------------------------------|
Db|------------------------------------------------|
Gb|--9-9-9-9-7-9-9---------------------------------|
Bb|--7-7-7-7-5-7-7---------------------------------|
Eb|------------------------------------------------|


Chorus:
        Iīm a sick boy...
Eb|------------------------------------------------|
Ab|------------------------------------------------|
Db|------------------------------------------------|
Gb|-11-11-11-12-11-11--9-9-9-7-9-9-----------------|
Bb|-9--9--9--10-9--9---7-7-7-5-7-7-----------------|
Eb|------------------------------------------------|


Verse:
        Well I'm happy the way I am...
Eb|------------------------------------------------|
Ab|------------------------------------------------|
Db|------------------------------------------------|
Gb|--9-9-9-9-7-9-9---------------------------------|
Bb|--7-7-7-7-5-7-7---------------------------------|
Eb|------------------------------------------------|



Chorus:
        Iīm a sick boy...
Eb|------------------------------------------------|
Ab|------------------------------------------------|
Db|------------------------------------------------|
Gb|-11-11-11-12-11-11--9-9-9-7-9-9-----------------|
Bb|-9--9--9--10-9--9---7-7-7-5-7-7-----------------|
Eb|------------------------------------------------|


[ Tab from: http://www.guitartabs.cc/tabs/s/slayer/undisputed_attitude_tab.html ]
       4x
Eb|------------------------------------------------|
Ab|------------------------------------------------|
Db|------------------------------------------------|
Gb|-11-9-11-12-11----------------------------------|
Bb|-9--7-9--10-9-----------------------------------|
Eb|------------------------------------------------|

Eb|------------------------------------------------|
Ab|------------------------------------------------|
Db|------------------------------------------------|
Gb|--9------9------9-------------------------------|
Bb|--7------7------7-------------------------------|
Eb|------------------------------------------------|


Verse:

          Well I'm happy the way I am...
Eb|------------------------------------------------|
Ab|------------------------------------------------|
Db|------------------------------------------------|
Gb|--9-9-9-9-7-9-9---------------------------------|
Bb|--7-7-7-7-5-7-7---------------------------------|
Eb|------------------------------------------------|


Chorus:
        Iīm a sick boy...
Eb|------------------------------------------------|
Ab|------------------------------------------------|
Db|------------------------------------------------|
Gb|-11-11-11-12-11-11--9-9-9-7-9-9-----------------|
Bb|-9--9--9--10-9--9---7-7-7-5-7-7-----------------|
Eb|------------------------------------------------|

Verse:
         There's assholes everywhere...
Eb|------------------------------------------------|
Ab|------------------------------------------------|
Db|------------------------------------------------|
Gb|--9-9-9-9-7-9-9---------------------------------|
Bb|--7-7-7-7-5-7-7---------------------------------|
Eb|------------------------------------------------|


Chorus:
        Iīm a sick boy...
Eb|------------------------------------------------|
Ab|------------------------------------------------|
Db|------------------------------------------------|
Gb|-11-11-11-12-11-11--9-9-9-7-9-9-----------------|
Bb|-9--9--9--10-9--9---7-7-7-5-7-7-----------------|
Eb|------------------------------------------------|


I couldnīt figure out the solo.


----------------------------------------------------------------------------
                               Mr. Freeze
----------------------------------------------------------------------------

TUNE DOWN 1/2 STEP 

RIFF A----------------------------~~\ 
|---------------|-------------------| 
|---------------|-------------------|
|---------------|-------------------| 
|---------------|-------------------| 
|---------------|-------------------| 
|-1-1-1-1-0-0-0-|-3-3-3--2---2--1---|
..................................../ 

RIFF A (4X) 

VERSE 

RIFF A (3 1/2X) 

RIFF B----------------\ 
|---------|-----------| 
|---------|-----------| 
|---------|-----------|
|---------|-----------| 
|-8-8---8-|-7--6-6--6-| 
|-6-6---6-|-5--4-4--4-|

RIFF B (3X) LAST TIME! 
|----| 
|----| 
|----| 
|----| 
|----| 
|-X\-| 

VERSE 

RIFF A (3 1/2X) 

RIFF B (4 X) 

RHY FIG 1.------------------------------------------\ 
|----------------|----------------------------------| 
|----------------|----------------------------------| 
|----------------|----------------------------------| 
|----------------|----------------------------------| 
|-6--6---6--7--6-|----------------------------------| 
|-8--8---8--9--8-|-6/8-8-8-8-8-8-8--6/8-8-8-8-8-8-8-| 
.................................................../ 

RHY FIG 1. (2X) 

BRIDGE 

RHY FIG 1. (4 X) 

RHY FIG 2.-------\ 
|-----------------| 
|-----------------| 
|-----------------| 
|-----------------| 
|-6--6---5--4-4-4-| 
|-4--4---3--2-2-2-| 

RHY FIG 2. (4X) 

RIFF C 
|---------------| 
|---------------| 
|---------------| 
|---------------| 
|-9-9--8--7-7-7-| 
|-7-7--6--5-5-5-| 

RIFF C (4X) 

SOLO (W/RHY FIG 1.) 

TB1 TB1 H-----\ TB6 /\/\/\/\/\ 
|-------------|---------------|-------|-------------| 
|-------------|---------------|-------|---11(F)-----| 
|-6---6/7-----|------------5--|-5---0-|-------------| 
|-----------4-|--------4------|-----0-|-------------| 
|-------------|-6-6-6---------|-------|-------------| 
|-------------|---------------|-------|---------11\-|

 W/RHY FIG 1. (2X) TB4 1/2 3 2 1 *H 
|----------------------------------| 
|----------------------------------| 
|-12----------------------------5--| 
|----------------------------------| 
|----------------------------------| 
|----------------------------------| 
*BAR AT NORML POS. 

BRIDGE 

W/RHY FIG 1. (4X) 
W/TREM. BAR FX AD LIB 

RHY FIG 2. (4X) 

RIFF C (2X) 

RIFF D 
|-------------------| 
|-------------------| 
|-------------------| 
|-------------------| 
|-11--11---10-9-9-9-| 
|--9--9----8--7-7-7-| 

RIFF E (2X) 
|---------------------| 
|---------------------| 
|---------------------| 
|---------------------| 
|-13-13--12--11-11-11-| 
|-11-11--10--9--9--9--| 

RIFF E (2X) 

OUTRO SOLO (W/ RHY FIG 1. 6X) 

|-6///--8///--9///-|-11///--13///---14///--| 
|------------------|-----------------------| 
|------------------|-----------------------| 
|------------------|-----------------------| 
|------------------|-----------------------| 
|------------------|-----------------------| 

|-17-14-13-17-14-13-14-13-14-17--13----13-13--|
|-----------------------------------16--------| 
|---------------------------------------------| 
|---------------------------------------------| 
|---------------------------------------------| 
|---------------------------------------------| 

|-14-14-17-17-14-13-------------------------| 
|-------------------16-14-13----------------| 
|----------------------------15-13----------|
|----------------------------------16-15-13-| 
|-------------------------------------------| 
|-------------------------------------------| 

PM-----\ TB1 /\ H/\/\ 
|-------------------|-------|--------------|--------|--------|---------| 
|-------------------|-------|--------------|--------|--------|---------| 
|-------------------|-------|--------------|------0-|-4------|-0-----5-| 
|-13----------------|-------|-16/----------|--------|--------|---------| 
|----16-14-13-------|-------|-13/---13--13-|--------|--------|----5----| 
|-------------15///-|-15///-|--------------|-0\-----|--------|---------| 

/\/\/\/\/\/\/\/\/\/\/\/ 
|---------------|-------|------|------------|------|-------------|
|---------------|-------|------|------------|------|-------------|
|-8-------/12-/-|-/20---|-8///-|-9///--10///|-9///-|-10///-11///-| 
|---------------|-------|-6///-|-7///--8///-|-7///-|--8///--9///-| 
|---------------|-------|------|------------|------|-------------| 
|---------------|-------|------|------------|------|-------------| 

|-------|--------------|-----|--------------|-------| 
|-------|--------------|-14--|-15--16-16-16-|-(16)\-| 
|-10///-|-11///--12///-|-13--|-14--15-15-15-|-(15)\-| 
|--8///-|--9///--10///-|-11--|-12--13-13-13-|-(13)\-| 
|-------|--------------|-----|--------------|-------| 
|-------|--------------|-----|--------------|-------| 

TB=TRMBLE BAR 
H=HARMONIC 
///=TREMOLO PICk 
/\/\=VIBRATO 
PM OR .=PALM MUTE 
X=PIC SLIDE 



----------------------------------------------------------------------------
                             Richard Hung Himself
----------------------------------------------------------------------------

Tune down 1/2 step

Intro:
Eb|-----------------------------------------------------|
Ab|-----------------------------------------------------|
Db|-----------------------------------------------------|
Gb|----2-3----------------------------------------------|
Bb|--2--------------------------------------------------|
Eb|-----------------------------------------------------|


Verse:  
       Needles stabbed into the walls...
Eb|----------------------------------------------------|
Ab|----------------------------------------------------|
Db|----------------------------------------------------|
Gb|----------------------------------------------------|
Bb|--4-4---7-7---6-6----2-2-2--------------------------|
Eb|--2-2---5-5---4-4----0-0-0--------------------------|



Chorus:
     Cause Richard hung himself  Richard Hung... 
Eb|-----------------------------------------------------|
Ab|-----------------------------------------------------|  
Db|-----------------------------------------------------|
Gb|-----------------------------------------------------|
Bb|--4-4-4--2-2-2--4-4-4-4--4--2-2-2-2-2-3-4------------|   
Eb|--2-2-2--0-0-0--2-2-2-2--2--0-0-0-0-0-1-2------------|

    He thought he find a better way with slashing...
Eb|-----------------------------------------------------|
Ab|-----------------------------------------------------|
Db|-----------------------------------------------------|
Gb|-----------------------------------------------------|<- Not 100% sure on this part 
Bb|--2-2-2-2-2-2-2-2-3--4-3--4-4-3-2--4-4-3-2--4-4-3-2--|
Eb|--0-0-0-0-0-0-0-0-1--2-1--2-2-1-0--2-2-1-0--2-2-1-0--|

Verse:
       Death room with black curtains...
Eb|-----------------------------------------------------|
Ab|-----------------------------------------------------|
Db|-----------------------------------------------------|
Gb|-----------------------------------------------------|
Bb|--4-4---7-7---6-6----2-2-2---------------------------|
Eb|--2-2---5-5---4-4----0-0-0---------------------------|


Chorus:
     Cause Richard hung himself  Richard Hung... 
Eb|-----------------------------------------------------|
Ab|-----------------------------------------------------|  
Db|-----------------------------------------------------|
Gb|-----------------------------------------------------|
Bb|--4-4-4--2-2-2--4-4-4-4--4--2-2-2-2-2-3-4------------|   
Eb|--2-2-2--0-0-0--2-2-2-2--2--0-0-0-0-0-1-2------------|

    He thought he find a better way with needles...
Eb|-----------------------------------------------------|
Ab|-----------------------------------------------------|
Db|-----------------------------------------------------|
Gb|-----------------------------------------------------|<- Not 100% sure on this part 
Bb|--2-2-2-2-2-2-2-2-3--4-3--4-4-3-2--4-4-3-2--4-4-3-2--|
Eb|--0-0-0-0-0-0-0-0-1--2-1--2-2-1-0--2-2-1-0--2-2-1-0--|

                    His life suddenly flashed...
Eb|-----------------------------------------------------|
Ab|-----------------------------------------------------|
Db|-----------------------------------------------------|
Gb|-----------------------------------------------------|
Bb|--4-4---7-7---6-6----2-2-----------------------------|
Eb|--2-2---5-5---4-4----0-0-----------------------------|

  4x          ...right before his eyes...            
Eb|-----------------------------------------------------|
Ab|-----------------------------------------------------|
Db|-----------------------------------------------------|
Gb|--4-4-4-4-4------------------------------------------|
Bb|--2-2-2-2-2------------------------------------------|
Eb|-----------------------------------------------------|

             Give it up give up...
Eb|-----------------------------------------------------|
Ab|-----------------------------------------------------|
Db|-----------------------------------------------------|
Gb|-----------------------------------------------------|
Bb|-----------------------------------------------------|
Eb|--2-1-0--2-1-0--21-0--2-1-0--2-1-0--21-0-------------|

    4x     Burning acid bath...
Eb|-----------------------------------------------------|
Ab|-----------------------------------------------------|
Db|-----------------------------------------------------|
Gb|--4-4-4-4-4------------------------------------------|
Bb|--2-2-2-2-2------------------------------------------|
Eb|-----------------------------------------------------|

   8x            Throw it all away...
Eb|-----------------------------------------------------|
Ab|-----------------------------------------------------|
Db|-----------------------------------------------------|
Gb|-----------------------------------------------------|
Bb|-----------------------------------------------------|
Eb|--2-2--1--0------------------------------------------|

Verse:
       Swinging in his room...        Palm Mute
Eb|-----------------------------------------------------|
Ab|-----------------------------------------------------|
Db|-----------------------------------------------------|
Gb|-----------------------------------------------------|
Bb|--4-4-4--7-7-7--6-6-6---2-2-2------------------------|
Eb|--2-2-2--5-5-5--4-4-4---0-0-0------------------------|

Chorus:
        Cause Richard hung himself  Richard Hung... 
Eb|-----------------------------------------------------|
Ab|-----------------------------------------------------|  
Db|-----------------------------------------------------|
Gb|-----------------------------------------------------|
Bb|--4-4-4--2-2-2--4-4-4-4--4--2-2-2-2-2-3-4------------|   
Eb|--2-2-2--0-0-0--2-2-2-2--2--0-0-0-0-0-1-2------------|


    He thought he find a better way with slashing...   play this a few times.
Eb|-----------------------------------------------------|
Ab|-----------------------------------------------------|  
Db|-----------------------------------------------------|
Gb|----11-11--10-10--9-9-9-9----------------------------|
Bb|----9--9---8--8---7-7-7-7----------------------------|   
Eb|-----------------------------------------------------|

Play this to end.                Palm Mute
Eb|-----------------------------------------------------|
Ab|-----------------------------------------------------|
Db|-----------------------------------------------------|
Gb|-----------------------------------------------------|
Bb|--4-4-4--7-7-7--6-6-6---2-2-2------------------------|
Eb|--2-2-2--5-5-5--4-4-4---0-0-0------------------------|


----------------------------------------------------------------------------
                            Im Gonna Be Your God  
----------------------------------------------------------------------------

Tune down 1/2 step


Intro:  4x
Eb|----------------------------------------------|
Ab|----------------------------------------------|
Db|----------------------------------------------|
Gb|-12-12-12-12--11-11-11-11--9-9-9-9-9-9--------|
Bb|-10-10-10-10--9--9--9--9---7-7-7-7-7-7--------|
Eb|----------------------------------------------|

Verse:   
             
Palm Mute
         I'm all jacked up  I want you here...
Eb|----------------------------------------------|
Ab|----------------------------------------------|
Db|----------------------------------------------|
Gb|----------------------------------------------|
Bb|-5-5-5-5--4-4-4-4--2-2-2-2-2-2----------------|
Eb|-3-3-3-3--2-2-2-2--0-0-0-0-0-0----------------|


Chorus:
        
     Now Iīm gonna be your god   Now Iīm gonna...
Eb|----------------------------------------------|
Ab|----------------------------------------------|
Db|----------------------------------------------|
Gb|-12-12-12-12--11-11-11-11--9-9-9-9-9-9--------|
Bb|-10-10-10-10--9--9--9--9---7-7-7-7-7-7--------|
Eb|----------------------------------------------|

Eb|----------------------------------------------|
Ab|----------------------------------------------|
Db|----------------------------------------------|
Gb|-12-9-7-4-5-5-5-5-5-5-5-2---------------------|
Bb|-10-7-5-2-3-3-3-3-3-3-3-0---------------------|
Eb|----------------------------------------------|

   4x
Eb|----------------------------------------------|
Ab|----------------------------------------------|
Db|----------------------------------------------|
Gb|----------------------------------------------|
Bb|-5-5-5-5--4-4-4-4--2-2-2-2-2-2----------------|
Eb|-3-3-3-3--2-2-2-2--0-0-0-0-0-0----------------|


Verse


Chorus 3x

Eb|----------------------------------------------|
Ab|----------------------------------------------|
Db|----------------------------------------------|
Gb|-12-9-7-4-5-5-5-5-5-5-5-----------------------|
Bb|-10-7-5-2-3-3-3-3-3-3-3-----------------------|
Eb|----------------------------------------------|


Solo


Verse  Only Bass  


Chorus 3x


Eb|----------------------------------------------|
Ab|----------------------------------------------|
Db|----------------------------------------------|
Gb|-12-9-7-4-5-5-5-5-5-5-5-2---------------------|
Bb|-10-7-5-2-3-3-3-3-3-3-3-0---------------------|
Eb|----------------------------------------------|  


----------------------------------------------------------------------------
                                   Gemini
----------------------------------------------------------------------------

TUNING
6-c#	3-E
5-F#	2-G#
4-B	1-c#

INTRO
RHY. FIG. 1-------------|
    *      **
|-------|-------|-------|
|-------|-------|-------|
|--4\---|--4\---|-------|REPEAT
|--2\---|--2\---|-------|4X
|--2\---|--2\---|--2-3--|
|--0\---|--0\---|--0-1--|
*=DROP BAR DOWN 2 1/2 STEPS!
**=DROP BAR DOWN 1 1/2 STEP!

RHY. FIG. 2------------------------------------------------\
|----------|----------|----------|--------------------------|
|----------|----------|----------|--------------------------|
|----------|----------|----------|--------------------------|REPEAT
|----------|----------|----------|--------------------------|2X
|--5--7-7--|--2--1-1--|--5--7-7--|--2--3-----5--4-----3--2--|
|--0--0-0--|--0--0-0--|--0--0-0--|--0--1--0--3--2--0--1--0--|
						   PM	     PM

1ST VERSE
RHY. FIG. 2A-----------------------------------------------\
|----------|----------|----------|--------------------------|
|----------|----------|----------|--------------------------|
|----------|----------|----------|--------------------------|REPEAT
|----------|----------|----------|--------------------------|3X
|--5--7-7--|--2--1-1--|--5--7-7--|--2--3-----5--4-----3--2--|
|--0--0-0--|--0--0-0--|--0--0-0--|--0--1--0--3--2--0--1--0--|
					 PM-------------------------/

|---------------|-----------------|-----------------|
|---------------|-----------------|-----------------|
|---------------|-----------------|-----------------|
|---------------|-----------------|-----------------|
|-2-3---5-4---3-|-2-3---5-4---3-2-|-2-3---6-5---5-6-|
|-0-1-0-3-2-0-1-|-0-1-0-3-2-0-1-0-|-0-1-0-4-3-0-3-4-|
     PM    PM       PM    PM         PM   PM

CHORUS
										/\/\
|------------------|-----------------|-----------------------------|
|------------------|-----------------|-----------------------------|
|------------------|-----------------|-----------------------------|
|------------------|-----------------|-----------------------------|
|-2--9-9--10\2-2-2-|-2--7-7-9\-2-2-2-|-2--9-9-10\7-7-9\----3-2-----|
|-0--7-7--8\-0-0-0-|-0--5-5-7\-0-0-0-|-0--7-7-8\-5-5-7\-0-1----3-2-|
		PM------/       PM--------/               

										/\/\
|------------------|-----------------|-----------------------------|
|------------------|-----------------|-----------------------------|
|------------------|-----------------|-----------------------------|
|------------------|-----------------|-----------------------------|
|-2--9-9--10\2-2-2-|-2--7-7-9\-2-2-2-|-2--9-9-10\7-7-9\----3-2-3-2-|
|-0--7-7--8\-0-0-0-|-0--5-5-7\-0-0-0-|-0--7-7-8\-5-5-7\-0-1--------|
		PM------/       PM--------/               

RHY. FIG. 2 (2X)

RHY. FIG. 2A (3X)

RHY. FIG 2(2X)

(PALM MUTE ON ALL OPEN 6TH STRING NOTES!!)
|---------------|-----------------|---------------|-----------------|
|---------------|-----------------|---------------|-----------------|
|---------------|-----------------|---------------|-----------------|
|---------------|-----------------|---------------|-----------------|
|-2-3---5-4---3-|-2-3---5-4---3-2-|-2-3---6---9-8-|-2-3---5-4---3-2-|
|-0-1-0-3-2-0-1-|-0-1-0-3-2-0-1-0-|-0-1-0-4-0-7-6-|-0-1-0-3-2-0-1-0-|


|---------------|-----------------|---------------|
|---------------|-----------------|---------------|
|---------------|-----------------|---------------|
|---------------|-----------------|---------------|
|-2-3---5-4---3-|-2-3---5-4---3-2-|-2-3---3-5-5-6-|
|-0-1-0-3-2-0-1-|-0-1-0-3-2-0-1-0-|-0-1-0-1-3-3-4-|

SOLO!!!
(I HAVE NO FUCKIN CLUE BUT I AM HALF WAY DONE FIGURING IT OUT!!
COME BACK HERE FOR MORE LATER!)

I KNOW THE RHYTHM PARTS THOUGH!!:
RHY. FIG. 1 (3 3/4X)

|---------|
|---------|
|---------|
|---------|
|-2-3-2-5-|
|-0-1-0-3-|

RHY. FIG. 3------------------------------------------------------------\
|------------------|-----------------|-----------------|---------------|
|------------------|-----------------|-----------------|---------------|
|------------------|-----------------|-----------------|---------------|
|------------------|-----------------|-----------------|---------------|
|-2-5-5-6--6-2-2-2-|-2-3-3-5-5-2-2-2-|-2-5-5-6-6-3-3-5-|-5-2-3-5-3-5-3-|
|-0-3-3-4--4-0-0-0-|-0-1-1-3-3-0-0-0-|-0-3-3-4-4-1-1-3-|-3-0-1-3-1-3-1-|
		PM-------/	     PM-------/               PM-----------/

RHY. FIG. 3 (1X)


RHY. FIG. 4----------------------\
|-----------------|---------------|
|-----------------|---------------|
|-----------------|---------------|
|-----------------|---------------|
|-2-2-2-2-2-2-2-2-|-2-3----5----3-|
|-0-0-0-0-0-0-0-0-|-0-1-0--3--0-1-|
PM---------------/

RHY. FIG. 4 (4 1/2X)

(IM ONLY GONNA SHOW THE 5TH AND 6TH STRING, CUZ THAT IS WHERE ALL THE ACTION IS!)

PALM MUTE ON ALL OPEN 6TH STRING NOTES!
5|-2-3---5----5-6-|------4-3-2-|-------3-2-1-|------4-3-2-|
6|-0-1-0-3--0-3-4-|--000-4-3-2-|-00000-3-2-1-|00000-4-3-2-|

5|---3-2-1---2-2-1-|-------4-3-2-|-------3-2-1-|-------4-3-2-|
6|-0-3-2-1-0-2-2-1-|-00000-4-3-2-|-00000-3-2-1-|-00000-4-3-2-|

5|---3-3-2---3-2-1-|-------4-3-2-|---3-2-1---2-2-1-|-------4-3-2-|
6|-0-3-3-2-0-3-2-1-|-00000-4-3-2-|-0-3-2-1-0-2-2-1-|-00000-4-3-2-|

5|---3-3-2---3-2-1-|-------4-3-2-|---3-3-2---2-2-1-|-------4-4-3-|
6|-0-3-3-2-0-3-2-1-|-00000-4-3-2-|-0-3-3-2-0-2-2-1-|-00000-4-4-3-|

5|---3-3-2---2-2-1-|------|
6|-0-3-3-2-0-2-2-1-|-1-0-0|

OUTRO

REPEAT INTRO (3X)
Comments