Slayer - Spiritual Law Chords & Tabs

 

Spiritual Law Chords & Tabs

Slayer Chords & Tabs

Version: 1 Type: Tab 0 ratings
1 star 2 stars 3 stars 4 stars 5 stars
comments

Spiritual Law Tab

Band- Slayer
Song- Spiritual Law

INTRO
-|-------------------------------------|
-|-------------------------------------|
-|-------------------------------------| X4
-|----------------------------------7--|
-|-3-2-2-3-2-2-3-2-3-2-2-3-2-2-3-2--7--|
-|-3-2-2-3-2-2-3-2-3-2-2-3-2-2-3-2--0--|
PM . . . . . . . . . . . . . . . .

VERSE
-|------------------------------------------------|
-|------------------------------------------------|
-|------------------------------------------------|X3
-|-999999-108-999999-108-121212121212111111111111-|
-|-777777-8-6-777777-8-6-101010101010-9-9-9-9-9-9-|
-|------------------------------------------------|

PRE-CHORUS
-|------------------------------|
-|------------------------------|
-|------------------------------|
-|-9999999----------------------|
-|-7777777---7777777---7777777--|
-|-----------7777777---0000000--|

CHORUS
-|--------------------------------------------------------------------------|--|
-|--------------------------------------------------------------------------|--|
-|-----------------------------------------------------------------------------|X1
-|-999999999999101010101010101010101010777777777777/1212127/121212/14-------|--|
-|-777777777777-8-8-8-8-8-8-8-8-8-8-8-8555555555555/1010105/101010/12-------|--|
-|--------------------------------------------------------------------------|--|

        then play this section of the chorus riff
-|----------------------------------------------------------------------------|
-|----------------------------------------------------------------------------|
-|----------------------------------------------------------------------------|
-|-999999999999101010101010101010101010777777777777---------------------------|
-|-777777777777-8-8-8-8-8-8-8-8-8-8-8-8555555555555---------------------------|
-|----------------------------------------------------------------------------|
[ Tab from: http://www.guitartabs.cc/tabs/s/slayer/spiritual_law_tab.html ]
        then striaght into...
VERSE X3
PRE-CHORUS
CHORUS X3
        then play this
--------------------------------------------------------------------------------|
--------------------------------------------------------------------------------|
--------------------------------------------------------------------------------|
999999999999101010101010101010101010777777777777--7/121212-7/121212-7/121212-7--|
777777777777-8-8-8-8-8-8-8-8-8-8-8-8555555555555--5/101010-5/101010-5/101010-5--|
--------------------------------------------------------------------------------|

        straight into...
INTERLUDE(I)
-|----------------------------------------------------------------|
-|----------------------------------------------------------------|
-|----------------------------------------------------------------|X2
-|-1212------1111------1212------1111--------------4/9------------|
-|-1010-1212-9-9--1111-1010-1212-9-9--1111-9-9-9-9-----9-9--9-9-9-|
-|------1010------9-9-------1010------9-9--7-7-7-7-----7-7--7-7-7-|

        then...
INTERLUDE(II)
-|--------------------------------------|
-|--------------------------------------|
-|-----------------------4/8------------|
-|--------------------------------------|
-|-7---910-1010--9-9-9-9-----9-9--9-9-9-|
-|-5---7-8--8-8--7-7-7-7-----7-7--7-7-7-|

        followed by...
-|----------------------------------------------------|-----------------------|
-|----------------------------------------------------|-----------------------|
-|----------------------------------------------------|-----------------------|
-|----------------------------------------------------|-----------------------|
-|-7---910-1010------------------67676767910910910910-|-----------------------|
-|-5---7-8--8-8--78787878787878787878787878-78-78-78--|-----------------------|


INTERLUDE(I) X2
INTERLUDE(II)X1

        then...
-|----------------------------------------------------------------------------|
-|----------------------------------------------------------------------------|
-|----------------------------------------------------------------------------|
-|----------------------------------------------------------------------------|
-|-7---910-1010---------------------------------------------------------------|
-|-5---7-8--8-8---------------------------------------------------------------|
Comments