Slayer - Spill The Blood Chords & Tabs

 

Spill The Blood Chords & Tabs

Slayer Chords & Tabs

Version: 4 Type: Tab 0 ratings
1 star 2 stars 3 stars 4 stars 5 stars
comments

Spill The Blood Tab

Spill the Blood
By: Slayer
Album: South of Heaven
Transcribed by: Mike Bower
Tune down ? step

Intro
|-------0-------0-------0-------0-------0-------0-------0-------|
|-----0---0---0---0---0---0---0---0---0---0---0---0---0---0-----|
|---4-------4-------3-------3-----------------------------------|
|-----------------------------------4-------4-------5-----------|
|---------------------------------------------------------------|
|---------------------------------------------------------------|

|-------0---------|
|-----0---0-------|
|-----------------|
|---3-------------|
|-----------------|
|-----------------|
W/ volume knob or pedal
|---------------------------------------------------------------|
|---------------------------------------------------------------|
|---------------------------------------------------------------|
|---4---------3-------------------------------------------------|
|---2---------1--------4-------5------3-------------------------|
|----------------------2-------3------1-------------------------|
Then, guitar 1 plays above riff w/distortion. Then play:
|---------------------------------------------------------------|
|---------------------------------------------------------------|
|--------------8-----7------------------------------------------|
|-------9-10-----9-----8----------8----5-7-8-5-7-8---5-7-8------|
|-----7--------------------7-10-9----5-------------5------------|
|---0--------0-----0-----0--------------------------------------|
    *        *     *     *
|------------------------|
|------------------------|
|--6----5----------------|
|----7----6--------------|
|------------------------|
|------------------------|


[ Tab from: http://www.guitartabs.cc/tabs/s/slayer/spill_the_blood_tab_ver_4.html ]
Rhy Fig 1
|-----------------------------------------------------------------|
|-----------------------------------------------------------------|
|-----------------------------------------------------------------|
|-----------------------------------------------------------------|
|-2-----3--5--3--2-------------2-----3--5--3--2-------------5-6---|
|-0-0-0-1--3--1--0-0-0-0-0-0-0-0-0-0-1--3--1--0-0-0-0-5-6-7-------|
    * *            pm---------|  *--------------------------------|            * * *
Rhy Fig 2
|-----------------------------------------------------------------|
|-----------------------------------------------------------------|
|-----------------------------------------------------------------|
|-----------------------------------------------------------------|
|--------3---2----------------------------------------------------|
|--2-2-2---2---2-4-5-2-2-2-5-4-2-4--------------------------------|
   pm---|  *   pm-------------------------------------------------|
|-----------------------------------------------------------------|
|-----------------------------------------------------------------|
|-----------------------------------------------------------------|
|-----------------------------------------------------------------|
|--2-----3--5--3--2-------------5-6-------------------------------|
|--0-0-0-1--3--1--0-0-0-0-5-6-7-----------------------------------|
     * *            * * *
Rhy Fig 3
|---------------------------------------------------------------|
|---------------------------------------------------------------|
|---------------------------------------------------------------|
|--------9---8---4-5---------4-3--------------------------------|
|--------7---6---2-3-----4-5------------------------------------|
|--0-0-0---0---0-----0-0----------------------------------------|
   * * *   *   *     pm-----|
|---------------------------------------------------------------|
|---------------------------------------------------------------|
|----------------------------4-5--------------------------------|
|--------9---8---4-5-----4-3------------------------------------|
|--------7---6---2-3-4-5----------------------------------------|
|--0-0-0---0---0------------------------------------------------|
   * * *   *   *     * *
Riff under solo #1
|---------------------------------------------------------------|
|---------------------------------------------------------------|
|---------------------------------------------------------------|
|--------9-8-4-5------------------------------------------------|
|--------7-6-2-3---------6--------------------------------------|
|--0-0-0---------0-0-0-0-4--------------------------------------|
   * * *         * * * *
Under solo #2 play Rhy Fig 3. That's it. Questions, comments, requests, e-mail me at: gtrdeath@hotmail.com.
Comments