Slayer - South Of Heaven Chords & Tabs

 

South Of Heaven Chords & Tabs

Slayer Chords & Tabs

Version: 6 Type: Tab 0 ratings
1 star 2 stars 3 stars 4 stars 5 stars
comments

South Of Heaven Tab

   
Gtr 1 E5 (whole note)
Riff C
|-------------------------------|---------------------------
|-------------------------------|---------------------------
|----------4---3----2---2-1-----|----------4---3----2---1(2)
|------2-5---5---4----3---------|------2-5---5---4----3-----
|---2---------------------------|---2-----------------------
|-0-----------------------------|-0-------------------------

At this point, the first verse comes in.

Gtr 1 E5 (sixteenth notes)
Play Riff C for four more times.

Gtr 1 low E flat 12th fret
Riff D
|-------------------------------|---------------------------
|-------------------------------|---------------------------
|-----------9---8----7---7-6----|-----------9---8----7--6(7)
|------9-10--10---9----8--------|------9-10--10---9----8----
|---7---------------------------|---7-----------------------
|-0-----------------------------|-0-------------------------

Play two more times
Gtr 1 E5                      F5|E5                            F5/8th| 

|-------------------------------|---------------------------
|-------------------------------|---------------------------
|-------------------------------|---------------------------
|-------------------------------|---------------------------
|------10----8---7-----10-------|------10----8---7-----10---
|0-0-0-0-0-0-0-0-0-0-0-0-0-0-1-1|0-0-0-0-0-0-0-0-0-0-0-0-0-1

Play two more times, then on the fourth time Gtr 1 plays E5/7th sixteenth notes.

Second Verse

Gtr 1&2
Rhy. Fig.1
|-------------------------------|---------------------------
|-------------------------------|---------------------------
|-------------------------------|---------------------------
|-------------5--------3--------|-------------5----------3--
|-------------5--------3--------|-------------5----------3--
|-0-0--0---0--3--0--0--1--0-----|-0-0--0---0--3--0-0--0--1-- 

Play Rhy. Fig. 1 six more times


Rhy. Fig.2
|-------------------------------|---------------------------
|-------------------------------|---------------------------
|-------------------------------|--------------------------5
|-------------------------------|---------------------------
|---4-------------4-------------|--4--------4--------4------
|---2--2--2-2--2--2--2--6\0-----|--2-2--2---2-2--2---2-2-2-


|-------------------------------|---------------------------
|-------------------------------|---------------------------
|-------------------------------|--------------------3------
|-------------------------------|--------------------3------
|---4-------4-------4-----------|---4-------4--------1------
|---2-2--2--2-2--2--2-2--2--5\0-|---2-2--2--2-2-2-0-----3--

Play Riff C&D two times.

Gtr 1 E5
|-------------------------------|---------------------------
|-------------------------------|---------------------------
|-----------------------------10|-9-------------------------
|-2-------9-------------------10|-9---------9---------------
|-2----10-----8---7-----10----8-|-7-----10------8---7---10--
|-0---------0-0-0-0-0-0-0-0-0---|---0-0-0-0-0-0-0-0-0-0-0-0-
Gtr 2
|--------------------------------|--------------------------
|--------------------------------|--------------------------
|--------------------------------|--------------------------
|--------------------------------|--------------------------
|-------10----8---7-----10-------|-------10----8---7-----10-
|-0-0-0-0-0-0-0-0-0-0-0-0-0-0-1-1|-0-0-0-0-0-0-0-0-0-0-0-0-

Both gtrs Rhy Fig 1 (2x's)

then Rhy Fig 2 once

|--------------------------------|--------------------------
|--------------------------------|--------------------------
|--------------------------------|------------------1---2---
|---------6---5--------5---------|---4--------------2---3---
|---------6---5--------5---------|---4----------------------
|---0--0--4---3--0--0--3---------|---2--0--0--0--0---------- 


Play two more times
Gtr 1
|-------------------------------|---------------------------
|-------------------------------|---------------------------
|----------------------------5--|---------------------------
|---------6----5----------------|---------------------------
|---------6----5----------------|---------------------------
|---0--0--4----3--0--0----------|-6--Press bar 1/2 before hitting note|
Gtr 2
|-------------------------------|---------------------------
|-------------------------------|---------------------------
|-------------------------------|-----------------------9---
|----------6 ----5-----------5--|--4------------------------
|----------6-----5-----------5--|--4--------------------7---
|--0---0---4-----3---0---0---3--|--2----0---0---0---0-------

Guitar Solo 1
Gtr 2
Rhy Fig 4|0000 0000 0000 F5|0000 aFlat5 0000 G5|
|--------------------------|-----------------------------|
|--------------------bar---|-----------------------17----|
|------/9----9-------(9)---|---------------------------19|
|------/10-----------------|-/14---14--(14)\11--16-------|
|--------------------------|-----------------------------|
|--------------------------|-----------------------------|

Gtr 2 play Rhy Fig 4 (5 times)
|-----------------------15--15-h-18--|--17-----17--17----16
|------------------------------------|----------------------
|-18\--slide-\12---------------------|----------------------
|------------------------------------|----------------------
|------------------------------------|----------------------
|------------------------------------|----------------------
  /full  /full                          (   3  ) [      6      ] (    6      ) 
|-22-----22-\slide\-12--17--19-|-24-21--19-21-21-19-17-17-
|------------------------------|----------------------------
|------------------------------|----------------------------
|------------------------------|----------------------------
|------------------------------|----------------------------
|------------------------------|----------------------------
[ Tab from: http://www.guitartabs.cc/tabs/s/slayer/south_of_heaven_tab_ver_6.html ]
|--------------------------------------------------12--|
|----------------------------------12-12--14-12-14-----|
|--------------------12-12-h-14-14---------------------|
|-12-12-14-12--14-12-----------------------------------|
|------------------------------------------------------|
|------------------------------------------------------|
     /full          /full
|---15-------------15--(15)\sl\8--/15--16--14----------|
|------------------------------------------------------|
|------------------------------------------------------|
|------------------------------------------------------|
|------------------------------------------------------|
|------------------------------------------------------|
 (      5     )  (       6       )  (       6        )  (      6       )
|17-15p14-15-14--18-18-16-16p15-16--15-18-18p17--16-19--18-
|-----------------------------------------------------------
|-----------------------------------------------------------
|-----------------------------------------------------------
|-----------------------------------------------------------
|-----------------------------------------------------------
      /full                                               /grad release
|----22----(22)----(22)---Fdbk--|------------------------19-|--------------------------0----|--(0)----------------------|-------------------------------|---------------------------
|-------------------------------|---------------------------
|-------------------------------|---17\sl\13----------------
|-------------------------------|------------13/17--11/16\-

|--(19)-------17-----15--x------|
|------------------------x-3/sl/|
|------------------------x------|
|-------------------------------|
|-------------------------------|
|-------------------------------|

4th Verse
Rhy Fig 1
	Trem bar
|---------\/----\/-----\/--|--\/-----\/----------|
|-/17----(17)--(17)---(17)-|-(17)---(17)---(17)--|
|--------------------------|---------------------|
|--------------------------|---------------------|
|--------------------------|---------------------|
|--------------------------|---------------------|

|--------------------------|---------------------|
|--------------------------|---------------------|
|--------------------------|---------------------|
|--------------------------|--------------------3|
|--Trem bar. (grad descend)|--------------------3|
|--0-----------------------|-(0)--------0-0--0--1|

Gtr 2 doubles Gtr 1 for 8 more times with Rhy Fig 1

Gtr 2
|-0--0--AFlat5---G5--0-0--0--G5-|-Fsh5--0-0-0-0-0-0-0-0-0-0-0-0-0-0|
Gtr 1
|-------------------------------|----------------------------------|
|-15----15----------------15----|-15--------15--------------15-----|
|-14----14----------------14----|-14--------14--------------14\sl--|
|-Full bends on 14--------------|----------------------------------|
|-------------------------------|----------------------------------|
|-------------------------------|----------------------------------|

Rhy Fig 5
|-0-0-0-0---AFl5-----------G5-------0-0-0-0-----G5----|

|-----------------------------------------------------|
|--------------------------------------------12-13-12-|
|--------------------------------12h14p12-14----------|
|------------------12h1412h14-14----------------------|
|----10h12--12sl14------------------------------------|
|-12--------------------------------------------------|

|Fsh5--0-0-0-0-0-0-0-0-0-0-0-0-0-0|

|-----------------------15-15-------------------------------------|
|-18sl15-17-18-17-18-17-------18p17-15p13p12-13-12---12----------/Full|
|--------------------------------------------------14---12h14-(14)|
|-----------------------------------------------------------------|
|-----------------------------------------------------------------|
|-----------------------------------------------------------------|

Gtr 2 Rhy Fig 5 (3 Times)

|------------------------------------------------------------|
|----------------------------------------------(      5     )|
|--------(  3  )-(     5     )--(   3  )-15h17/19-19-17h19-19|
|--------9h10-12-14p12---14/16--15h17-17---------------------|
|-9sl10------------------------------------------------------|
|------------------------------------------------------------|

|-----------------------------------------------------------------|
|-------------------------------------/full-15-----15--15--15--18-|
|-19---17h19--19-17h19--19-17h19--19-17-----17/full----17/full----|
|-//------//--//--------------------------------------------------|
|-----------------------------------------------------------------|
|-----------------------------------------------------------------|

|---/1 1/2------------------/ 2-------------------------|
|--18--------------(18)----18----(18)------19-----------|
|--17--------------(17)----17----(17)------18/2 1/2-----|
|-------------------------------------------------------|
|-------------------------------------------------------|
|-------------------------------------------------------|
					      / 1 1/2  /1 1/2          /1 1/2 
|----------------------------13--17--17--|--(17)------17--------------17-|
|----(19)-----(19)-----15-15-------------|-------------------------------|
|----(18)-----(18)---/sl-----------------|-------------------------------|
|------------------x/--------------------|-------------------------------|
|------------------x/--------------------|-------------------------------|
|------------------x/--------------------|-------------------------------|
	     /1 1/2                 trem bar while trilling
|--(17)-----17-----------14h17--|---14----(17)----------------|
|-------------------------------|-----------------------------|
|-------------------------------|------------------------press bar|
|-------------------------------|------------------------0----|
|-------------------------------|-----------------------------|
|-------------------------------|-----------------------------|

Gtr 1 Fsh5 Type 2 (1/8) notes
|----------------------------|------------------------|
|----------------------------|------------------------|
|----------------------------|------------------------|
|--(0)-----------------------|--(0)-------------------|
|----------------------------|------------------------|
|----------------------------|------------------------|

FREE TIME

Gtr 2 
|------------------------|--0---------------|--(0)----------------|
|-----/1 1/2-------------|--0---------------|--(0)----------------|
|----17------------------|(17)--------------|--(17)---------------|
|---x Rake---------------|------------------|---------------------|
|--x---------------------|------------------|---------------------|
|------------------------|------------------|---------------------|
Gtr 1
|------------------------|------------------|---------------------|
|------------------------|------------------|---------------------|
|------------------------|------------------|---------------------|
|------------------------|------------------|---------------------|
|--2---------------------|-(2)--------------|-(2)-----------------|
|--0---------------------|-(0)--------------|-(0)-----------------|

Gtr 2
|--(0)-------------|
|--(0)-------------|
|------------------|
|------------------|
|------------------|
|------------------|

Gtr 1
|------------------|
|------------------|
|------------------|
|------------------|
|-(2)--------------|
|-(0)--------------|
Comments