Slayer - South Of Heaven Chords & Tabs

 

South Of Heaven Chords & Tabs

Slayer Chords & Tabs

Version: 2 Type: Tab 1 rating
1 star 2 stars 3 stars 4 stars 5 stars
comments

South Of Heaven Tab

song: south of heaven
artist: slayer
tabed by bill


---------------------------------------------------------
---------------------------------------------------------
---------------------9---9---8--8---7---7---6---5--------
-----------9---10----------------------------------------
---------------------------------------------------------
---0---0-------------------------------------------------

[ Tab from: http://www.guitartabs.cc/tabs/s/slayer/south_of_heaven_tab_ver_2.html ]
---------------------------------------------------------
---------------------------------------------------------
---------------------------------------------------------
--------------------9---9---8---8---7---6---5------------
-----------9---10----------------------------------------
---0---0-------------------------------------------------

I think this is right but the number of times you play each
note might not be right so try and figure it out yorself.

Make sure you buy slayers new abulm, the front cover may be 
a bit sick but its a wicked album.

p.s if you know seasons in the abyss email it to me at 
irbastin@hotmail.com

Comments