Slayer - Silent Scream Chords & Tabs

 

Silent Scream Chords & Tabs

Slayer Chords & Tabs

Version: 3 Type: Tab 0 ratings
1 star 2 stars 3 stars 4 stars 5 stars
comments

Silent Scream Tab

this is my first song that got me into slayer so i have listened to this song
very closely.
it sounds good but you decide...
enjoy ;)

    intro:               repeat 4x
 Eb|------------------------------||
 Bb|------------------------------||
 Gb|------------------------------||
 Db|-4-3--------------------------||
 Ab|-2-1--------------------------||
 Eb|------0-0-0-0-0-0-0-0-0-0-0-0-||
                       

                  repeat 9x before chorus
 |---------------------------------------||
 |---------------------------------------||
 |---------------------------------------||
 |---------9-----------8-----------------||
 |-7---------10----------9--------8/10-7-||
 |---0-0-0-------0-0-0------0-0-0--------||


 |          repeat 2x            |
 |-------------|-----------------||-----------------|
 |-------------|-----------------||-----------------|
 |-------------|-----------------||-----------------|
 |-9-----8-----|-4-2-4-2-4-2-4-5-||-7-9-7-9-7-9-7-9-|
 |-7-----7-----|-2-0-2-0-2-0-2-3-||-5-7-5-7-5-7-5-7-|
 |-------------|-----------------||-----------------|


                        through out chorus
 |---------------------------------------||
 |---------------------------------------||
 |---------------------------------------||
 |---------9-----------8-----------------||
 |-7---------10----------9--------8/10-7-||
 |---0-0-0-------0-0-0------0-0-0--------||

[ Tab from: http://www.guitartabs.cc/tabs/s/slayer/silent_scream_tab_ver_3.html ]
 |          repeat 2x            |
 |-------------|-----------------||------------------|
 |-------------|-----------------||------------------|
 |-------------|-----------------||------------------|
 |-9-----8-----|-4-2-4-2-4-2-4-5-||-9-7-9-7-9-7-9-10-|
 |-7-----7-----|-2-0-2-0-2-0-2-3-||-7-5-7-5-7-5-7-8--|
 |-------------|-----------------||------------------|


 then comes the solo...i couldn't get...

                                                 repeat 5x
 |-------------------------------------------------------------------------||
 |-------------------------------------------------------------------------||
 |-------------------------------------------------------------------------||
 |---------------------9-------------------------8---------------------9-8-||
 |---------------------7-------------------------7---------------------7-7-||
 |-0-0-0-0-0-0-0-0-0-0---0-0-0-0-0-0-0-0-0-0-0-0---0-0-0-0-0-0-0-0-0-0-----||

                      repeat 5x
 |-------------------------------------||
 |-------------------------------------||
 |-------------------------------------||
 |-4-3---------------------------------||
 |-2-1---------------------------------||
 |-----0-0-0-0-0-0-0-0-0-0-0-0-0-0-0-0-||

                              repeat 4x
 |-------------------------------------||
 |-------------------------------------||
 |-------------------------------------||
 |---------9----------8----------------||
 |-7---------10---------9-------8/10-7-||
 |---0-0-0------0-0-0-----0-0-0--------||

               repeat 2x
 |---------------|-------------||--------------||
 |---------------|-------------||--------------||
 |---------------|-------------||--------------||
 |-9------8------|-4-2-4-2-4-5-||-9-7-9-7-9-10-||
 |-7------7------|-2-0-2-0-2-3-||-7-5-7-5-7-8--||
 |---------------|-------------||--------------||




 well thats it...
 
     SLAYER RULES!!!   ON AND ON SOUTH OF HEAVEN!
 tabed by *INFERNUS666*
Comments