Slayer - Seasons In The Abyss Chords & Tabs

 

Seasons In The Abyss Chords & Tabs

Slayer Chords & Tabs

Version: 5 Type: Tab 0 ratings
1 star 2 stars 3 stars 4 stars 5 stars
comments

Seasons In The Abyss Tab

Slayer-Seasons In The Abyss
This is my first tab. So please leave comment at the bottom.
That will help me decide if I should post more or not.
I don't think you guy's are stupid(s*it you listen to slayer)
so im not going to post reapeat 12 times or what ever, your not dumb.

I will guarentee you this song is 100% acurate.  If you play it with
the song it all mixes togeather(unless you suck and you screw up a lot)
(this is regular tuning by the way)

---0----------------|---0----------------|
---0----------------|---0----------------|
--------------------|--------------------|
-2-------2------3-3-|-2-------2------3-3-|
-2------2---1^--3-3-|-2------2---1^--3-3-|
-0--------------1-1-|-0--------------1-1-|

---------0----------------|----------0----------------|
---------0----------------|----------0----------------|
--------------------------|---------------------------|
---------------2------3-3-|----------------2------3-3-|
----3-2~------2---1^--3-3-|-----3-2~------2---1^--3-3-|
0-1-------------------1-1-|-0-1-------------------1-1-|


---------------12---------|---------------12--------|
------13-12--12-----------|------13-12--12----------|
---14-------------15^-----|---14-------------15^----|
-15-------------------3-3-|-15-------------------33-|
----------------------3-3-|----------------------33-|
----------------------1-1-|----------------------11-|

----0--------0--------0--------0----0---|
---0-0------0-0------0-0------0----0----|
--3---3-3--3---3-3--3---3-3--3----3-----|
-2-----2--2-----2--3-----3--------------|
----------------------------3----2------|
----------------------------------------|

----------------------|
----------------------|
-----------------5--4-|
-2--------3------5--4-|
-2--------3------3--2-|
-0--------1------3--2-|

-------------------------------------------------------|
-------------------------------------------------------|
---------------------------------------------------5-4-|
-4----9-9-9-9-9-9-9-9-10-10-10-10-10-10-10-10--5---5-4-|
-2----7-7-7-7-7-7-7-7-8--8--8--8--8--8--8--8---3---3-2-|
---------------------------------------------------3-2-|

---------------------------------|
---------------------------------|
----palm mute all except--!---!--| 
--------------------------2---1--|
--------------------------2---1--|
-0-2-3--0-2-3-5--0-2-3-0---30--2-|
[ Tab from: http://www.guitartabs.cc/tabs/s/slayer/seasons_in_the_abyss_tab_ver_5.html ]
--------------------------------|
--------------------------------|
----palm mute all except----!-!-|
----------------------------5-4-|
----------------------------5-4-|
-0-2-3--0-2-3-5--0-2-3-2-0--3-2-|

----------------------------------------------------------|
----------------------------------------------------------|
-palm mute-!!!------------!!!------------!!!------------1-|
-2-222-1-2-222--2-222---2-222--2-222-1-2-222--2-22222---1-|
-2-222-1-2-222--2-222-2-2-222--2-222-1-2-222--2-22222-3---|
----------------------1-------------------------------3---|

----------------------------------------------------------|
----------------------------------------------------------|
-palm mute-!!!------------!!!------------!!!--------------|
-2-222-1-2-222--2-222---2-222--2-222-1-2-222--2-22222-5-4-|
-2-222-1-2-222--2-222-2-2-222--2-222-1-2-222--2-22222-5-4-|
----------------------1-------------------------------3-2-|

-------------------|
-------------------|
---------5---------|
-2---3---5-----5-4-|
-2---3---3-----5-4-|
-0---1---3-----3-2-|

----------------------------------------------------------|
----------------------------------------------------------|
-palm mute-!!!------------!!!------------!!!------------1-|
-2-222-1-2-222--2-222---2-222--2-222-1-2-222--2-22222---1-|
-2-222-1-2-222--2-222-2-2-222--2-222-1-2-222--2-22222-3---|
----------------------1-------------------------------3---|

----------------------------------------------------------|
----------------------------------------------------------|
-palm mute-!!!------------!!!------------!!!--------------|
-2-222-1-2-222--2-222---2-222--2-222-1-2-222--2-22222-5-4-|
-2-222-1-2-222--2-222-2-2-222--2-222-1-2-222--2-22222-5-4-|
----------------------1-------------------------------3-2-|

-------------------|
-------------------|
---------5---------|
-2---3---5-----5-4-|
-2---3---3-----5-4-|
-0---1---3-----3-2-|

---------------------------------|
---------------------------------|
----palm mute all except--!---!--| 
--------------------------2---1--|
--------------------------2---1--|
-0-2-3--0-2-3-5--0-2-3-0---30--2-|

--------------------------------|
--------------------------------|
----palm mute all except----!-!-|
----------------------------5-4-|
----------------------------5-4-|
-0-2-3--0-2-3-5--0-2-3-2-0--3-2-|

Then the solo comes in.  But im sorry people I sucke here.  
Ummm its the 13 of April, hmmm ill try to figure it out for ya's
so give me a week or two.
any other tab requests or corrections you can e-mail me at fairies_wear_boots32@hotmail.com
(yes i am an ozzy fan)
Comments