Slayer - Revenge Chords & Tabs

 

Revenge Chords & Tabs

Slayer Chords & Tabs

Version: 1 Type: Tab 0 ratings
1 star 2 stars 3 stars 4 stars 5 stars
comments

Revenge Tab

Band- Slayer
Song- Revenge

e-------------------------------------------| 
B-------------------------------------------| 
G-------------------------------------------| 
D-------------------------------------------| 
A-7/9-9-9-9--9--9--9-9-9--9--9--9-9-9--9--9-| 
E-5/7-7-7-7--7--7--7-7-7--7--7--7-7-7--7--7-|

Gt1
e---------------------------------------------| 
B---------------------------------------------| 
G--------9-9----------------------------------| 
D--6-6---9-9--9--9-9--9-9-9--4--6-6-6-6-6-6-6-| 
A--6-6---7-7--9--9-9--9-9-9--4--6-6-6-6-6-6-6-| 
E--4-4--------7--7-7--7-7-7--2--4-4-4-4-4-4-4-|

Gt2
e----------------------------------4-4----4-4----4-4----4-4------| 
B----------------------------------4-4----4-4----4-4----4-4------| 
G-------------------------------6b-----6b-----6b-----6b------6-4-| 
D----------------------------------------------------------------| 
A----------------------------------------------------------------| 
E----------------------------------------------------------------|

Gt1
e--------------------------------------------------| 
B--------------------------------------------------| 
G--------------------------------------------------| 
D---2--2-2-2--4--4-4--4-4-4--7--7-7-7--4-4-4-4-4-4-| 
A---2--2-2-2--4--4-4--4-4-4--7--7-7-7--4-4-4-4-4-4-| 
E---0--0-0-0--2--2-2--2-2-2--5--5-5-5--2-2-2-2-2-2-|


Gt2
e------------------------------------------------14-14------14-14-| 
B----------------------------4----4--------------14-14------14-14-| 
G----------------------------4--4---4---4/----16b-------16b-------| 
D----------------------------4--------4---------------------------| 
A-----------------------------------------------------------------| 
E-----------------------------------------------------------------|  


e----------------------------| 
B----------------------------| 
G----------------------------| 
D---2-2-2-2--6-6-6-6-6-6-6-6-| 
A---2-2-2-2--6-6-6-6-6-6-6-6-| 
E---0-0-0-0--4-4-4-4-4-4-4-4-|

e-------------------------------------------| 
B-------------------------------------------| 
G-------------------------------------------| 
D-------------------------------------------| 
A-7/9-9-9-9--9--9--9-9-9--9--9--9-9-9--9--9-| 
E-5/7-7-7-7--7--7--7-7-7--7--7--7-7-7--7--7-|

Gt1
e---------------------------------------------| 
B---------------------------------------------| 
G--------9-9----------------------------------| 
D--6-6---9-9--9--9-9--9-9-9--4--6-6-6-6-6-6-6-| 
A--6-6---7-7--9--9-9--9-9-9--4--6-6-6-6-6-6-6-| 
E--4-4--------7--7-7--7-7-7--2--4-4-4-4-4-4-4-|

Gt2                                                                 
e----------------------------------4-4----4-4----4-4----4-4--------------| 
B----------------------------------4-4----4-4----4-4----4-4--6-----------| 
G-------------------------------6b-----6b-----6b-----6b------6-6b--------| 
D------------------------------------------------------------------------| 
A------------------------------------------------------------------------| 
E------------------------------------------------------------------------|
[ Tab from: http://www.guitartabs.cc/tabs/s/slayer/revenge_tab.html ]
                                                      pick slide
e----------------------------------------------------------------| 
B----------------------------------------------------------------| 
G----------------------------------------------------------------| 
D----------------------------------------------------------------| 
A----------------------------------------------------------X/----| 
E----------------------------------------------------------X/----|


Gt1
e--------------------------------------------------| 
B--------------------------------------------------| 
G--------------------------------------------------| 
D---2--2-2-2--4--4-4--4-4-4--7--7-7-7--4-4-4-4-4-4-| 
A---2--2-2-2--4--4-4--4-4-4--7--7-7-7--4-4-4-4-4-4-| 
E---0--0-0-0--2--2-2--2-2-2--5--5-5-5--2-2-2-2-2-2-|


Gt2
e-----------------------------------------------14-14------14-14-| 
B----------------------------4----4-------------14-14------14-14-| 
G----------------------------4--4---4----4/--16b-------16b-------| 
D----------------------------4--------4--------------------------| 
A----------------------------------------------------------------| 
E----------------------------------------------------------------|  


e----------------------------| 
B----------------------------| 
G----------------------------| 
D---2-2-2-2--6-6-6-6-6-6-6-6-| 
A---2-2-2-2--6-6-6-6-6-6-6-6-| 
E---0-0-0-0--4-4-4-4-4-4-4-4-|


e-------------------------------------------| 
B-------------------------------------------| 
G-------------------------------------------| 
D-------------------------------------------| 
A-7/9-9-9-9--9--9--9-9-9--9--9--9-9-9--9--9-| 
E-5/7-7-7-7--7--7--7-7-7--7--7--7-7-7--7--7-|

Gt1
e---------------------------------------------| 
B---------------------------------------------| 
G--------9-9----------------------------------| 
D--6-6---9-9--9--9-9--9-9-9--4--6-6-6-6-6-6-6-| 
A--6-6---7-7--9--9-9--9-9-9--4--6-6-6-6-6-6-6-| 
E--4-4--------7--7-7--7-7-7--2--4-4-4-4-4-4-4-|

Gt2
e----------------------------------4-4----4-4----4-4----4-4-| 
B----------------------------------4-4----4-4----4-4----4-4-| 
G-------------------------------6b-----6b-----6b-----6b-----| 
D-----------------------------------------------------------| 
A-----------------------------------------------------------| 
E-----------------------------------------------------------|

Gt1
e--------------------------------------------------| 
B--------------------------------------------------| 
G--------------------------------------------------| 
D---2--2-2-2--4--4-4--4-4-4--7--7-7-7--4-4-4-4-4-4-| 
A---2--2-2-2--4--4-4--4-4-4--7--7-7-7--4-4-4-4-4-4-| 
E---0--0-0-0--2--2-2--2-2-2--5--5-5-5--2-2-2-2-2-2-|


Gt2
e----------------------------------------------14-14------14-14-| 
B----------------------------4----4------------14-14------14-14-| 
G----------------------------4--4---4---4/--16b-------16b-------| 
D----------------------------4--------4-------------------------| 
A---------------------------------------------------------------| 
E---------------------------------------------------------------|  


e----------------------------| 
B----------------------------| 
G----------------------------| 
D---2-2-2-2--6-6-6-6-6-6-6-6-| 
A---2-2-2-2--6-6-6-6-6-6-6-6-| 
E---0-0-0-0--4-4-4-4-4-4-4-4-|

e------------------------------------| 
B------------------------------------| 
G------------------------------------| 
D--6-6-6-6-6-6-6-6-----6-6-6-6-6-6-6-| 
A--6-6-6-6-6-6-6-6--4--6-6-6-6-6-6-6-| 
E--4-4-4-4-4-4-4-4--2--4-4-4-4-4-4-4-|
Comments