Slayer - Read Between The Lies Chords & Tabs

 

Read Between The Lies Chords & Tabs

Slayer Chords & Tabs

Version: 1 Type: Tab 0 ratings
1 star 2 stars 3 stars 4 stars 5 stars
comments

Read Between The Lies Tab

Read between the lies
By: Slayer
Album: South of Heaven
Transcribed by: Mike Bower
Tune down ½ step
Riff 1  *= pm
|---------------------------------------------------------------|
|---------------------------------------------------------------|
|---------------------------------------------------------------|
|-----------------5-----5-----5-----5-----5---------------------|
|---2-3--5-4------4-----4-----4-----4-----4---------------------|
|---0-1--3-2--0-0---0-0---0-0---0-0---0-0-----------------------|
              * *   * *   * *   * *   * *
Riff 2
|---------------------------------------------------------------|
|---------------------------------------------------------------|
|---------------------------------------------------------------|
|-------------------7-6-------6-5-------------------------------|
|---------7-8-----8---------7-----------------------------------|
|---0-0-0-----0-0-------0-0-------------------------------------|
    pm---|    * *       * *
Riff 2b
|---------------------------------------------------------------|
|---------------------------------------------------------------|
|-------------------7-6-------6-5-------------------------------|
|---------7-8-----8---------7-----------------------------------|
|---------------------------------------------------------------|
|---0-0-0-----0-0-------0-0-------------------------------------|
    pm---|    * *       * *
Riff 3
|---------------------------------------------------------------|
|---------------------------------------------------------------|
|---------------------------------------------------------------|
|---2-----2------2----------------------------------------------|
|---1-----1------1----------------------------------------------|
|-----0-0---0-0----0-0-0-0-3p0----------------------------------|
      * *   * *    pm-----|
Riff under solo
|---------------------------------------------------------------|
|---------------------------------------------------------------|
|---------------------------------------------------------------|
|--------------------------------4------------------------------|
|-------4-----------4-3----------2------------------------------|
|---2-2---2-2-2-2-2------2-2-2-2--------------------------------|
    * *   pm-------|     pm-----|
|---------------------------------------------------------------|
|---------------------------------------------------------------|
|---------------------------------------------------------------|
|-----------------------------4\3-------------------------------|
|-------4---------4-3---------2\1-------------------------------|
|---2-2---2-2-2-2-----2-2-2-2-----------------------------------|
    * *   pm-----|    pm-----|
That's pretty much the whole song. All you need is this last riff:
|---------------------------------------------------------------|
|---------------------------------------------------------------|
|---------9-------8---------------------------------------------|
|-----------7-------7-6-----7-6-5-------------------------------|
|---------------------------------------------------------------|
|---0-0-0-----0-0-------0-0-------------------------------------|
    * * *     * *       * *
I didn't include the song order, because if you listen to Slayer, you must be smart. Questions, comments, requests, e-mail me at: gtrdeath@hotmail.com

[ Tab from: http://www.guitartabs.cc/tabs/s/slayer/read_between_the_lies_tab.html ]
Comments