Slayer - Raining Blood Correct Chords & Tabs

 

Raining Blood Correct Chords & Tabs

Slayer Chords & Tabs

Version: 1 Type: Tab 8 ratings
1 star 2 stars 3 stars 4 stars 5 stars
comments

Raining Blood Correct Tab

   
Slayer-Raining Blood
Tabbed by: Paul Moreau 
(told how to play it by Kerry King) 

Tune Down 1/2 step         
6=Eb  3=Gb                 P.M.=Palm Mute
5=Ab  2=Bb                 %=Repeat Previous
4=Db  1=Eb                 h=Hammer-On
                           p= Pull-Off


Intro  Drums w/Thunder and Rain effects
||---------------------------------------------------------|| 
||---------------------------------------------------------||
||---------------------------------------------------------||
||---------------------------------------------------------||
||---------------------------------------------------------||
||---------------------------------------------------------||

Fast Rock
Riff A (guitars 1&2)-------------------
P.M====|                                  Play 2 times
||---------------------------------------------------------||
||---------------------------------------------------------||
||---------------------------------------------------------||
||----------8-9-8------8-7-------7-6-----------------------||
||-------7----------9---------8----------------------------||
||0-0-0----------------------------------------------------||

W/Riff A (2 times)
GTR II
P.M.===|        +      +
||---------------------------------------------------------||
||---------------------------------------------------------||
||----------8-9-8------8-7-----7-6-------------------------||
||-------7----------9--------8-----------------------------||
||---------------------------------------------------------||
||0-0-0----------------------------------------------------||
                                                              
Both Guitars
P.M.=======================================================
||---------------------------------------------------------||
||---------------------------------------------------------||
||O--------------------------------------------------------||
||O--------------------------------------------------------||
||---------------------------------------------------------||
||-000-000-000-000-000-000-000-000-000-000-000-000---------|| 

P.M.=======|                            (play 4 times)
||---------------------------------------------------------||
||---------------------------------------------------------||
||--------------------------------------------------------O||
||----------------3---2-----------------------------------O||
||------------4-----------3---2----------------------------||
||----2---4------------------------------------------------||

"Spider Crawl" Riff
P.M.==============================
||--------------------------------|------------------------||
||--------------------------------|------------------------||
||--------------------------------|------------%-----------||
||--------------------------------|------------------------||
||--------------------------------|------------------------||
||5-3-2-0-6-4-3-0-5-3-2-0-6-4-3-0-|------------------------||

Double Time Feel                                      (cont)..  
PM=========================================================
||---------------------------------------------------------||
||---------------------------------------------------------||
||---------------------------------------------------------||
||---------------------------------------------------------||
||---------------------------------------------------------||
||5-3-2-0-6-4-3-0-5-3-2-0-6-4-3-0-5-3-2-0-6-4-3-0-5-3-2-0-6||
[ Tab from: http://www.guitartabs.cc/tabs/s/slayer/raining_blood_correct_tab.html ]
..
P.M ===========|   P.M.================================(cont)...
||---------------------------------------------------------||
||---------------------------------------------------------||
||---------------------------------------------------------||
||---------------3-----------------------------------------||
||---------------1-----------------------------------------||
||4-3-0-5-3-2-0----0-3-5-3-2-0-6-4-3-0-5-3-2-0-6-4-3-0-----||
                                                         
P.M.=============|         (Play 2 times)                  
||---------------------------------------------------------||
||---------------------------------------------------------||
||---------------------------------------------------------||
||---------------------------------------------------------||
||--------------------5------------8-----------------------||
||5-3-2-0-6-4-3-0-----3------------6-----------------------||

  (Trapped in purgatory.........)
P.M.===================|             P.M.=====| (Play 8 times)
||----------------------------------------------------------||
||----------------------------------------------------------||
||------------------------------9---8-----------------------||
||-----------------------12-----9---8----------9-9---14-----||
||-----------------------12-----7---6----------9-9---14-----||
||000-000-000-000-00000--10-----------00000000-7-7---12-----||

(play 4 times, 3rd time with lyrics (pierced from below)
 P.M.====|           +P.M.==|
||----------------------------------------------------------||
||----------------------------------------------------------||
||--------------------------------------888888888888--------||
||----------------------------------9-8-888888888888--7--7--||
||--------7h10p8p7h8---------7---9------666666666666--7--7--||
||0-0-0-0--------------0-0-0--------------------------5--5--||
                                                              
With Riff A (4 times, 3rd with Lyrics (awaiting........)
||----------------------------------------------------------||
||----------------------------------------------------------||
||--------10-11-10------10-9-----9-8------------------------||
||------9------------11--------10---------------------------||
||----------------------------------------------------------||
||0-0-0-----------------------------------------------------||

Rhythm Fig 1  (Play 2 times, 2nd with drums)
||--------------------------------------||
||--------------------------------------||
||--------------------------------------||
||--------------------------------------||
||2-2--2-2--2-2--2-2--2-2--2-2--2-2--2-2||
||0-0--0-0--0-0--0-0--0-0--0-0--0-0--0-0||    


With Rhy Fig 1 (12 Times)
   PM           PM         PM            PM
||----------------------------------------------------------||
||----------------------------------------------------------||
||----------------------------------------------------------||
||----------10----------9------------8----------------------||
||----7--9--------7--9---------7--9---------7-10-9----------||
||-7------------7-----------7------------7------------------||
                                                               
(Raining Blood...)                (Play 4 times)
  P.M.=|       ====|       ====|      ====|
||--------------------------------------------||
||--------------------------------------------||
||--------------------------------------------||
||---------4-----------3-----------2----------||
||-2-2--5--2---2-2--5--1---2-2--5--0--2-2--5-4||
||-0-0--3------0-0--3------0-0--3-----0-0--3-2||
                                                

||----------------------------------------------------------||
||----------------------------------------------------------||
||----------------------------------------------------------||
||----------------------------------------------------------||
||----------------------------------------------------------||
||0000000000000000000000000000000000000000000000000000000000||


With "Whammy bar abuse" solo........ =)
||----------------------------------------------------------||
||----------------------------------------------------------||
||----------------------------------------------------------||
||----------------------------------------------------------||
||----------------------------------------------------------||
||0000000111111177777776666666600000001111111666666668888888||


I Learned this from Guitar World, as taught by Kerry King, 
in his article "South of Heaven"
Garaunteed 100% correct, after all... Kerry was the one who told
how to play it.

if you have correct versions of any anthrax or slayer, e-mail me at:
killstapp@yahoo.com
Comments