Slayer - Overt Enemy Chords & Tabs

 

Overt Enemy Chords & Tabs

Slayer Chords & Tabs

Version: 1 Type: Bass Tab 0 ratings
1 star 2 stars 3 stars 4 stars 5 stars
comments

Overt Enemy Bass Tab

Overt Enemy - Slayer
tabbed by: ryan b

Riff A: (once)
Ab-------------6-5------------------6-5-------
C#--0----7-6--------8-----0----7-6-------8-7--

Riff B: (once)
Ab---------------------------6-5-------
C#--2-1--5-4--8----0----7-6-------8-7--

Riff A: (once)
Riff B: (once)

Riff C: (once)
Ab--------------------------------
C#--0-----320-320-3-2--320-320-6--

Riff D: (3 times)
Ab--------------------------
C#--320-320-3-2--320-320-6--

Riff E: (3 times)
Ab----------------------
C#--0--3--2----0--6--5--

Riff F: (once)
Ab--------------------------
C#--3---0-0--0-0--0-0--0-0--

Riff E: (3 times)

Riff G: (once)
Ab----------------
C#--3---0-0--0-0--

Riff E: (3 times)

Riff H: (once)
Ab---------------------
C#--3---0-0--0-0--0-0--
[ Tab from: http://www.guitartabs.cc/tabs/s/slayer/overt_enemy_btab.html ]
Riff I: (3 times)
Ab---------------------
C#--0--7--6---0--7--1--

Riff J: (3 times)
Ab---------------------
C#--0--2--1---0--5--4--

Riff F: (once)
Riff E: (3 times)
Riff G: (once)
Riff E: (3 times)
Riff H: (once)
Riff I: (3 times)
Riff J: (3 times)
Riff F: (once)

Riff K: (once)
Ab--------
C#--3--0--

***rest for guitar***
Riff L: (twice)
Ab---------------------
C#--3-2-0--3-2-0--3-0--

Riff M: (4 times)
Ab---------------------------
C#--320-320-3-2-320-320-3-2--

***rest for guitar***
Riff L: (twice)
Riff M: (4 times)

Riff N: (8 times)
Ab-------------------
C#--2-2-2-2-2-2-2-2--

Riff O: (once)
Ab--------------------6-5-------
C#--2-2-2---0----7-6-------8-7--

Riff C: (once)
Riff D: (3 times)
Riff E: (3 times)

Riff P: (once)
Ab----------
C#--3--0-0--

Comments