Slayer - Necrophobic Chords & Tabs

 

Necrophobic Chords & Tabs

Slayer Chords & Tabs

Version: 2 Type: Tab 0 ratings
1 star 2 stars 3 stars 4 stars 5 stars
comments

Necrophobic Tab

   
necrophobic (solo)
album:reign in blood
slayer

tabbed by Rudy Guzman


solo

eb:-15b-------------------------------------------------------------------|
Bb:-17b--16~~~-------------------------------------------------------12-12|
Gb:-----------------------------------------------------------------------|
Db:-----------------------------------------------------------------------|
Ab:------------11-11-12-14-14-14-15-17-15-15-16-18-17-17-18-20p18p17------|
Eb:-----------------------------------------------------------------------|



eb:---------------------------------------------------------------------------|
Bb:12-15-12-13-13-13-16-13-14-14-14-17-14-15-15-15-18-15-16-16-16-19-16-17-17-|
Gb:---------------------------------------------------------------------------|
Db:---------------------------------------------------------------------------|
Ab:---------------------------------------------------------------------------|
Eb:---------------------------------------------------------------------------|

[ Tab from: http://www.guitartabs.cc/tabs/s/slayer/necrophobic_tab_ver_2.html ]
eb:-------------------21b*-17b----------22b-----------------------------------------*
Bb:-17-20-17-20-17-18----*-----18b-----------20b~~~-6b--10b-------------------------*
Gb:----------------------*---------19b----------------------------------------------*
Db:----------------------*----------------------------------------------------------*
Ab:----------------------*--------------------------------------------15-16-18-16-15*
Eb:----------------------*-----------------------------------15-16-18---------------*


eb:---------------------------------------16-17-19-17-16-------------------*
Bb:------------------------------15-16-18----------------18-15-16-18-16-15-*
Gb:---------14-14-15-15-17p15p14-------------------------------------------*
Db:15-16-18----------------------------------------------------------------*
Ab:------------------------------------------------------------------------*
Eb:------------------------------------------------------------------------*

   repeat 3 times
eb:---------------------------------------------------*
Bb:---------------------------------------------------*
Gb:-18-18-18-18p17p15----echo-------------------------*
Db:---------------------------------------------------*
Ab:---------------------------------------------------*
Eb:---------------------------------------------------*
Comments