Slayer - Mandatory Suicide Chords & Tabs

 

Mandatory Suicide Chords & Tabs

Slayer Chords & Tabs

Version: 4 Type: Tab 0 ratings
1 star 2 stars 3 stars 4 stars 5 stars
comments

Mandatory Suicide Tab

   
mandatory suicide (solo 1)
album: south of heaven
slayer

tabbed by Rudy Guzman

solo 1
       -----------
eb------------------------------17b-17b------------------------------------------*
Bb-17-15b-15-15-15--17p15-17p15---------17p15-17p15-17b-15h17p15----15-----------*
Gb---------------------------------------------------------------16----16-16b-16b*
Db-------------------------------------------------------------------------------*
Ab-------------------------------------------------------------------------------*
Eb-------------------------------------------------------------------------------*

eb--------------------------------------------------------7-10-7-*
Bb----------------------------------------------7-10-7-10--------*
Gb--------------------------------------7-9-7-9------------------*
Db-15-12-13-12-13\--------------7-9-7-9--------------------------*
Ab------------------7-10-7-10-7----------------------------------*
Eb---------------------------------------------------------------*
                   pm  . .  . . . . . .
[ Tab from: http://www.guitartabs.cc/tabs/s/slayer/mandatory_suicide_tab_ver_4.html ]
    t       t       t       t       t       t       t       t        t
eb-12-10p7-12-10p7-12-10p7-12-10p7-13-11p8-14-12p9-14-12p9-15-13p10-16-14p11*
Bb--------------------------------------------------------------------------*
Gb--------------------------------------------------------------------------*
Db--------------------------------------------------------------------------*
Ab--------------------------------------------------------------------------*
Eb--------------------------------------------------------------------------*

    t        t        t        t        t
eb-17-15p12-18-16p13-19-17p14-20-18p15-21-19p16--22\----------------------*
Bb---------------------------------------------------21b-21~~~-21p18-21p18*
Gb------------------------------------------------------------------------*
Db------------------------------------------------------------------------*
Ab------------------------------------------------------------------------*
Eb------------------------------------------------------------------------*



eb--------------------------------------------------------*
Bb--------------------------------------------------------*
Gb-21b-21b-21~~-21~~--/20-/21-/22-/21-/20-----------------*
Db--------------------------------------------------------*
Ab--------------------------------------------------------*
Eb--------------------------------------------------------*
Comments