Slayer - Live Undead Chords & Tabs

 

Live Undead Chords & Tabs

Slayer Chords & Tabs

Version: 1 Type: Tab 0 ratings
1 star 2 stars 3 stars 4 stars 5 stars
comments

Live Undead Tab

   

-/
/ The following is the author's own interpretation of the song, to be used  /
/ for private use and studying                                             /
/-------------------------------------------------------------------------/
                             SLAYER - LIVE UNDEAD
                          From the Album SOUTH OF HEAVEN     
                        Copyright 1988 DEF JAM RECORDINGS
                      
                           Version 1.0 - October 1998

Transcription By: David Schellhaas

For Questions, Comments, Newest Version, or Corrections contact
        David Schellhaas at: dschellhaas@hotmail.com

Check out 's Death/Black Tab Webpage at
        

join the death/black tab emailing list by
        emailing 

.  - palm mute                  /  - slide up to
\  - slide down to              ~  - vibrato             
h  - hammer on                  b  - bend 
p  - pull off                        Suffixes for bend    
ph - pinch harmonic                      f - full bend    h - half bend
*  - see comment                         r - release      t - tap bend
X  - percussion mute                     ~ - vibrato bend
@  - slight palm mute           () - ghost note, sustained note

Tuning: Eb(Eb,Ab,Db,Gb,Bb,Eb)
[ Tab from: http://www.guitartabs.cc/tabs/s/slayer/live_undead_tab.html ]
Intro.-
|-----------------------------------|
|-----------------------------------|
|-9------8------------7-------------|
|-9------8------------7-------------|
|-7------6-----6h9p6--5-------------|
|---0000---00-----------0000-6-5----|
  pm----   --           ----  

Verse (there are a few variations, but it's all w/these notes)-
|--------------------------------------------------|
|--------------------------------------------------|
|--------------------------------------------------|
|--------------------------------------------------|
|-7-----7-----7-----7-----8-----8-----8-----8------|
|---777---777---777---777---888---888---888---888--|
  pm---   ---   ---   ---   ---   ---   ---   ---   

Chorus thingy-
|---------------------------------|
|---------------------------------|
|---------------------------------|
|---------6\5---6----------8------|
|-7----8--4\3---4--7----8--6------|
|-5----6-----------5----6---------|

Pre-Chorus thingy-
|--------------------------------------------------------------------|
|--------------------------------------------------------------------|
|--------------------------------------------------------------------|
|--------------------------------------------------------------------|
|------8--------8--------8----6--------8--------8--------8----7-6-7--|
|-0000-6-000000-6-000000-6-00-4---0000-6-000000-6-000000-6-00-5-4-5--|
pm----   ------   ------   --     ----   ------   ------   ---   

Riff that's played w/lead-
|------------------------------|
|------------------------------|
|------------------------------|
|------------------------------|
|-------7h10-7--------7h10-7---|
|-00000--------000000----------|
pm-----        ------  

This may be missing a few backup riffs, if so, I'll send them in at some 
point...

Check out 's Death/Black Tab Webpage at
        
Comments