Slayer - Jesus Saves Chords & Tabs

 

Jesus Saves Chords & Tabs

Slayer Chords & Tabs

Version: 2 Type: Tab 0 ratings
1 star 2 stars 3 stars 4 stars 5 stars
comments

Jesus Saves Tab

Slayer - Jesus Saves
Submitted By: Sqweeky
EMail: Blindside831@aol.com
http://www.cyberworld.nl/metalmarket/thegrave/index.html 

    p m      pm    p m         pm    p m       trill            p m            
E---------------------------|--------------------------------|---------------- 
Bb--------------------------|--------------------------------|---------------- 
Gb--------------------------|--------------------------------|---------------- 
Db--------1-----1--------1--|-----1--------4/3-1--(2)--------|--------1------- 
Ab--------1-----1--------1--|-----1--------2/1---------------|--------1------- 
Eb--0--0-----0-----0--0-----|--0-----0--0--------------------|--0--0---------- 
                                                                               
    pm    p m         pm                       p m      pm    p m              
E------------------|------------------------|--------------------------|------ 
Bb-----------------|------------------------|--------------------------|------ 
Gb-----------------|------------------------|--------------------------|------ 
Db-----1--------1--|-----4/3-------4--3-----|--------1-----1--------1--|------ 
Ab-----1--------1--|-----2/1-4--6--2--1-----|--------1-----1--------1--|------ 
Eb--0-----0--0-----|--0------2--4-----------|--0--0-----0-----0--0-----|------ 
                                                                               
    pm    p m       trill         p m      pm    p m         p m               
E------------------------------|--------------------------|------------------- 
Bb-----------------------------|--------------------------|------------------- 
Gb-----------------------------|--------------------------|------------------- 
Db-----1--------4/3----(2)-----|--------1-----1--------1--|--------4---------- 
Ab-----1--------2/1------------|--------1-----1--------1--|--------2---------- 
Eb--0-----0--0-----------------|--0--0-----0-----0--0-----|--0--0------------- 
                                                                               
    p m                   riff a                                               
E---------------------||------------------------------------------------------ 
Bb--------------------||------------------------------------------------------ 
Gb--------------------||------------------------------------------------------ 
Db-----------3--------||------------------------------------------------------ 
Ab-----------1--------||------------------------------------------------------ 
Eb-----0--0-----------||--0-----0--0--0-----0--0--0--0--0--0--0-----0--0------ 
                                                                               
                                                                               
E----------------------------------------------------------------------------- 
Bb---------------------------------------------------------------------------- 
Gb---------------------------------------------------------------------------- 
Db---------------------------------------------------------------------------- 
Ab---------------------------------------------------------------------------- 
Eb--0--0--0--0--0-----0--0--0--0--0--0--0-----0--0--0--0-----0--0-----0--0---- 
                                                                               
                       pm all                                            
E------------------||--------------------------|------------------------------ 
Bb-----------------||--------------------------|------------------------------ 
Gb-----------------||--------------------------|------------------------------ 
Db-----------------||--------------------------|------------------------------ 
Ab-----------------||--7--7--7--8--------8--8--|--11--11--11--10--------10---- 
Eb--0--0--0--0--0--||--5--5--5--6--------6--6--|--9---9---9---8---------8----- 
                                                                               
            pm          pm                  pm          pm           trill     
[ Tab from: http://www.guitartabs.cc/tabs/s/slayer/jesus_saves_tab_ver_2.html ]
E-------||-------------------------------|------------------------------------ 
Bb------||-------------------------------|------------------------------------ 
Gb------||-------------------------------|------------------------------------ 
Db------||-------------------------------|------------------------------------ 
Ab--10--||--------8--7-----8--7--11--10--|--------8--7-----8--7--11--10------- 
Eb--8---||--0--0--------0----------------|--0--0--------0--------------------- 
                                                                               
                 verses      (all pm)                                          
E------------||--------------------------------------------------------------- 
Bb-----------||--------------------------------------------------------------- 
Gb-----------||--------------------------------------------------------------- 
Db-----------||--------------------------------------------------------------- 
Ab--(11)-----||--------------------------------------------------------------- 
Eb-----------||--0--0--0--0--0--0--0--0--3--0--0--0--0--0--0--0--5--0--0------ 
                                                                               
                                            chorus                             
E---------------------------------------||------------------------------------ 
Bb--------------------------------------||------------------------------------ 
Gb--------------------------------------||------------------------------------ 
Db--------------------------------------||------------------------------------ 
Ab-----------------6-----9-----8--------||------------------------------------ 
Eb--0--0--0--0--0--4-----7-----6--------||--0--0--0--0--5--3--0--0--0--0------ 
                                                                               
    (all pm)                                                  under solo 1     
E---------------------------------------------------------||------------------ 
Bb--------------------------------------------------------||------------------ 
Gb--------------------------------------------------------||------------------ 
Db--------------------------------------------------------||------------------ 
Ab--------------------------------------------7-----8-----||--6--6--6--6------ 
Eb--0--0--5--3--0--0--0--0--0--0--5--3--0--0--5-----6-----||--4--4--4--4------ 
                                                                               
                                        3x                                     
E---------------------------------------|------------------------------------- 
Bb--------------------------------------|------------------------------------- 
Gb--------------------------------------|------------------------------------- 
Db--------------------------------------|--5--5--5--5--5--5--5--5------------- 
Ab--6--6--6--6--6--6--6--6--7--7--7--7--|--3--3--3--3--3--3--3--3--9--9--9---- 
Eb--4--4--4--4--4--4--4--4--5--5--5--5--|--------------------------7--7--7---- 
                                                                               
                       under solo 2         (all pm)                           
E------------------||--------------------------------------------------------- 
Bb-----------------||--------------------------------------------------------- 
Gb-----------------||--------------------------------------------------------- 
Db-----------------||--------------------------------------------------------- 
Ab--9--9--9--9--9--||--------------------------------------------------------- 
Eb--7--7--7--7--7--||--0--0--0--0--0--0--0--0--3--3--3--3--3--3--3--3--2------ 
                                                                               
                                                                               
E----------------------------------------------------------------------------- 
Bb---------------------------------------------------------------------------- 
Gb---------------------------------------------------------------------------- 
Db---------------------------------------------------------------------------- 
Ab---------------------------------------------------------------------------- 
Eb--2--2--2--2--2--2--6--6--6--6--6--6--6--6--0--0--0--0--0--0--0--0--3--3---- 
                                                                               
                                                                               
E---------------------------------------------------------------------||------ 
Bb--------------------------------------------------------------------||------ 
Gb--------------------------------------------------------------------||------ 
Db--------------------------------------------------------------------||------ 
Ab--------------------------------------------------------------------||------ 
Eb--3--3--3--3--3--3--2--2--2--2--2--2--2--2--8--8--8--8--8--8--8--8--||------ 
                                                                               
    lead break                                       under solo 3              
E------------------------------------------------||--------------------------- 
Bb-----------------------------------------------||--------------------------- 
Gb-----------------------------------------------||--------------------------- 
Db-----------------------------------------------||--------------------------- 
Ab--7-----------8--7-----------8--7-----------8--||--8--7--7--7--7--7--7------ 
Eb--5-----------6--5-----------6--5-----------6--||--6--5--5--5--5--5--5------ 
                                                                               
                      3x                                                       
E------------------------------|---------------------------------------------- 
Bb-----------------------------|---------------------------------------------- 
Gb-----------------------------|---------------------------------------------- 
Db-----------------------------|---------------------------------------------- 
Ab--7--7--7--7--7--7--7--7--7--|--8--8--8--8--8--8--8--8--8--8--8--8--8--8---- 
Eb--5--5--5--5--5--5--5--5--5--|--6--6--6--6--6--6--6--6--6--6--6--6--6--6---- 
                                                                               
              end                                                              
E---------||-----------||----------------------------------------------------- 
Bb--------||-----------||----------------------------------------------------- 
Gb--------||-----------||----------------------------------------------------- 
Db--------||-----------||----------------------------------------------------- 
Ab--8--8--||--8--------||----------------------------------------------------- 
Eb--6--6--||--6--------||-----------------------------------------------------
Comments