Slayer - In A Gadde Da Vidda Chords & Tabs

 

In A Gadde Da Vidda Chords & Tabs

Slayer Chords & Tabs

Version: 1 Type: Bass Tab 0 ratings
1 star 2 stars 3 stars 4 stars 5 stars
comments

In A Gadde Da Vidda Bass Tab

   
Band- Slayer
Song- In A Gadde Da Vidda

Tuning: 1/2 Step Down


Drum intro

Intro A:
|----------------------------------------------------------|
|----------------------------------------------------------|
|----------------------------------------------------------|
|--0-------------------------------------------------------|

Intro B:
|----------------------------------------------------------|
|---------------------------------9-8-7--------------9-8-7-|
|--------------------7-7-10-9-5-7-------7-7-10-9-5-7-------|
|--0-0-0-0-0-0-0-0-----------------------------------------|

Verse:
|--------------------------|
|--------------------------|
|--------------------------|
|-0-0-0-0--3-2-0-0---7-6-5-|
[ Tab from: http://www.guitartabs.cc/tabs/s/slayer/in_a_gadde_da_vidda_btab.html ]
|--------------------------------------|
|-----------5-7-8-7-9-10-9-8-8h9p8-7-5-|
|--7-9-10-9----------------------------|
|--------------------------------------|

Chorus:
|----------------------------------------------------------|
|----------------------------------------------------------|
|----------------------------------------------------------|
|--555555555555-22222222222--555555555-2222222222----------|

|----------------------------------------------------------|
|----------------------------------------------------------|
|----------------------------------------------------------|
|---77777777777--444444444444-777777777777-444444444-------|

Riff A:
|----------------------------------------------------------|
|----------------------------------------------------------|
|--9-------------------------------------------------------|
|----------------------------------------------------------|
Comments