Slayer - I Hate You Chords & Tabs

 

I Hate You Chords & Tabs

Slayer Chords & Tabs

Version: 3 Type: Tab 0 ratings
1 star 2 stars 3 stars 4 stars 5 stars
comments

I Hate You Tab

--------------------------------[SOLO]--------------------------------------

start after the second chorus
                                   full------------|   full------------------|
--------12-|--12-12--12-12--------17b-17-17-17---17--|-19b--19-19-19---------|
-/12-15-15-|--15-15--15-15-15/20--20--20-20-20---20--|-22---22-22-22---------|
-----------|-----------------------------------------|-----------------------|
-----------|-----------------------------------------|-----------------------|
-----------|-----------------------------------------|-----------------------|
-----------|-----------------------------------------|-----------------------|

         full         full        full-------------|
----19-|-22b------17--20b-------14-|-17b17b17b-----|
-22----|------/20----------/17-----|---------------|
-------|---------------------------|---------------|
-------|---------------------------|---------------|
-------|---------------------------|---------------|
-------|---------------------------|---------------|

fast part:
-16-13-16-13-15-10-15-13-14-9-11-13-11-8-12-9-12-6-12-8-9-5-9-5--9-6-------|
---------------------------------------------------------------------------|
---------------------------------------------------------------------------|
---------------------------------------------------------------------------|
---------------------------------------------------------------------------|
---------------------------------------------------------------------------|
 T  P  T  P  T  P  T  P  T  P  H  H  P P  T P T P T P T P T P    T P
[ Tab from: http://www.guitartabs.cc/tabs/s/slayer/i_hate_you_tab_ver_3.html ]
--7-4-7-4-6-2-5-9-3---4-1-3-4-3-4-3-1-3-1-0---1--0--|-----------------------|
----------------------------------------------------|-/4------/5------------|
----------------------------------------------------|-----/2----------------|
----------------------------------------------------|-----------------------|
----------------------------------------------------|-----------------------|
----------------------------------------------------|-----------------------|
  T P T P T P H T P   H P H H P H P P H P P   H  P

                                   1/2            whammy bar  V
-------------/15--|--19------22-whammy----|--------------------------------|
-----/15-/20------|--------X/21-whammy----|--------------------------------|
-/19--------------|-----------------------|------------------[5]\/---------|
------------------|-----------------------|-------[5]-----[5]--------------|
------------------|-----------------------|----[5]-------------------------|
------------------|-----------------------|-[5]----------------------------|

                                          /\/\/\/\/\/\/\/\/\
-5--5-5-5-5p3-|-5p3-2-|--------------------------------------|
-5--5-5-5-5p3-|-5p3-2-|--------------------------------------|
--------------|-------|-------whammy>>>[5]-------------------|
--------------|-------|--------------------------------------|
--------------|-------|--0-whammy-dive-----------------------|
--------------|-------|--------------------------------------|

--5-5-5-5-5-5-5p3-|---5p3--2----------------|
--5-5-5-5-5-5-5p3-|---5p3--2---------10\\\--|
------------------|-------------------------|
------------------|-------------------------|
------------------|-------------------------|
------------------|-------------------------|
Comments