Slayer - I Hate You Chords & Tabs

 

I Hate You Chords & Tabs

Slayer Chords & Tabs

Version: 1 Type: Tab 0 ratings
1 star 2 stars 3 stars 4 stars 5 stars
comments

I Hate You Tab

I Hate You
by: Slayer

As far as Riffs 1, 2, and 3 go, they are CORRECT.

Im not sure that guitar 2 is 100% correct but its close enough to get the idea,
but its a little different each time its played so you'll have to listen to the 
song.

Riff 1(light Palm Muting)
|-------------------------------------------------------------------------------------------| 
|-------------------------------------------------------------------------------------------|
|-------------------------------------------------------------------------------------------|
|-------------------------------------------------------------------------------------------|
|------3---3-3-3-3-3-3---4--4-4-4-4-4-4---6--6-6---4--4-4---3--3-3-3-3-3-3------------------| 
|------1---1-1-1-1-1-1---2--2-2-2-2-2-2---4--4-4---2--2-2---1--1-1-1-1-1-1------------------| 
pm.        ...........      ...........      ...      ...      ...........

Riff 2 (heavier Palm Muting)
|-------------------------------------------------------------------------------------------| 
|-------------------------------------------------------------------------------------------|
|-------------------------------------------------------------------------------------------|
|-------------------------------------------------------------------------------------------|
|------3---3-3-3-3-3-3---4--4-4-4-4-4-4---6--6-6---4--4-4---3--3-3-3-3-3-3------------------| 
|------1---1-1-1-1-1-1---2--2-2-2-2-2-2---4--4-4---2--2-2---1--1-1-1-1-1-1------------------| 
pm         ...........      ...........      ...      ...      ...........

Riff 3
|-------------------------------------------------------------------------------------------| 
|-------------------------------------------------------------------------------------------|
|-------------------------------------------------------------------------------------------|
|------3--3-3-3-3-3-3---8--8-8-8-8-8-8---6--6-6-6-6-6-6-------------------------------------|
|------1--1-1-1-1-1-1---6--6-6-6-6-6-6---4--4-4-4-4-4-4---6--6-6-6-6-6-6--------------------| 
|---------------------------------------------------------4--4-4-4-4-4-4--------------------| 


Ending Part
Gtr. 1                            Gtr. 2 riff 1                Gtr. 2 riff 3
|------------------------------| |----------------------------|----------------------|
|------------------------------| |--/4-4-4-4-4b-r-4-----------|-------------------7\-|
|------------------------------| |----------------------------|-7b-7b-7b-7b-7b-7b-7\-|
|------------------------------| |----------------------------|----------------------|
|--3--- let -------3-/---------| |----------------------------|----------------------|
|--1--- ring ------1-/---------| |----------------------------|----------------------|
                                  -first time                  -first time all but "7\"
                                  -second time (???)           -second time not as many "7b"
                                  -------(like i said im not sure about this)----------
KEY:
riff 1 x2
riff 2 x2
riff 3 x2
riff 1 x2
riff 2 x2
riff 3 x2
riff 2 x6 (4x behind solo) 		
riff 3 x2
ending part


SOLO

[ Tab from: http://www.guitartabs.cc/tabs/s/slayer/i_hate_you_tab.html ]
                                    full------------|   full------------------|
|--------12-|--12-12--12-12--------17b-17-17-17---17--|-19b--19-19-19---------|
|-/12-15-15-|--15-15--15-15-15/20--20--20-20-20---20--|-22---22-22-22---------|
|-----------|-----------------------------------------|-----------------------|
|-----------|-----------------------------------------|-----------------------|
|-----------|-----------------------------------------|-----------------------|
|-----------|-----------------------------------------|-----------------------|

          full         full        full-------------|
|----19-|-22b------17--20b-------14-|-17b17b17b-----|
|-22----|------/20----------/17-----|---------------|
|-------|---------------------------|---------------|
|-------|---------------------------|---------------|
|-------|---------------------------|---------------|
|-------|---------------------------|---------------|

played really fast:
|-16-13-16-13-15-10-15-13-14-9-11-13-11-8-12-9-12-6-12-8-9-5-9-5--9-6-------|
|---------------------------------------------------------------------------|
|---------------------------------------------------------------------------|
|---------------------------------------------------------------------------|
|---------------------------------------------------------------------------|
|---------------------------------------------------------------------------|
  T  P  T  P  T  P  T  P  T  P  H  H  P P  T P T P T P T P T P    T P

|--7-4-7-4-6-2-5-9-3---4-1-3-4-3-4-3-1-3-1-0---1--0--|-----------------------|
|----------------------------------------------------|-/4------/5------------|
|----------------------------------------------------|-----/2----------------|
|----------------------------------------------------|-----------------------|
|----------------------------------------------------|-----------------------|
|----------------------------------------------------|-----------------------|
   T P T P T P H T P   H P H H P H P P H P P   H  P

                                    1/2            whammy bar  V
|-------------/15--|--19------22-whammy----|--------------------------------|
|-----/15-/20------|--------X/21-whammy----|--------------------------------|
|-/19--------------|-----------------------|------------------[5]\/---------|
|------------------|-----------------------|-------[5]-----[5]--------------|
|------------------|-----------------------|----[5]-------------------------|
|------------------|-----------------------|-[5]----------------------------|

                                           /\/\/\/\/\/\/\/\/\
|-5--5-5-5-5p3-|-5p3-2-|--------------------------------------|
|-5--5-5-5-5p3-|-5p3-2-|--------------------------------------|
|--------------|-------|-------whammy>>>[5]-------------------|
|--------------|-------|--------------------------------------|
|--------------|-------|--0-whammy-dive-----------------------|
|--------------|-------|--------------------------------------|

|--5-5-5-5-5-5-5p3-|---5p3--2----------------|
|--5-5-5-5-5-5-5p3-|---5p3--2---------10\\\--|
|------------------|-------------------------|
|------------------|-------------------------|
|------------------|-------------------------|
|------------------|-------------------------|
Comments