Slayer - God Sends Death Chords & Tabs

 

God Sends Death Chords & Tabs

Slayer Chords & Tabs

Version: 1 Type: Bass Tab 0 ratings
1 star 2 stars 3 stars 4 stars 5 stars
comments

God Sends Death Bass Tab

   
Rif: A
G---------------------------------------------|
D---------------------------------------------|
A---------------------------------------------|
E-1-1-1-0~~~~~----4-3-1-------4-3-1-3-4-8-7-4-|

Rif: B
G----------------------------------------|
D----------------------------------------|
A----------------------------------------|
E-00-00-00-00-00-00-00-00-00-00-00-00-00-|

Rif: C
G-----------------------------------|
D-----------------------------------|
A-----------------------------------|
E-0-0-0-0-0-0-0-0-0-0-0-0-0-0-0-0-0-|
[ Tab from: http://www.guitartabs.cc/tabs/s/slayer/god_sends_death_btab.html ]
Rif: D
G------------------|
D--------7-8-------|
A------------9-8-5-|
E-0-0-0------------|

Rif: E
G---------------------------------|
D---------------------------------|
A---------------------------------|
E-3-3-3-0-0-0-2-2-6-6-6-6-5-5-5-5-|

Rif: F
G--------------------------------------------------------|
D--------------------------------------------------------|
A----4-----3---------------------------------------------|
E-222--222--222-5-2222--1111--6666--5555-3-2-0-2-0-2-0-2-|

Rif: G
G-------|
D-------|
A-------|
E-4-3-1-|
Comments