Slayer - Ghosts Of War Chords & Tabs

 

Ghosts Of War Chords & Tabs

Slayer Chords & Tabs

Version: 1 Type: Tab 1 rating
1 star 2 stars 3 stars 4 stars 5 stars
comments

Ghosts Of War Tab

   
Slayer
Ghosts Of War
by Wolfstrike
Wolfstrike2@usinmail.com


(tuned 1/2 step down)

(T = Tremlo pick selected note, speed pick clean and evenly through
 the whole riff when possible, i'm not going to try to count them)


      (intro)                                      (repeat)

E:--------------------------------|-------------------------------|
B:--------------------------------|-------------------------------|
G:--------------------------------|-------------------------------|
D:-----------------3----2---------|------------------3----2-------|
A:--5--------4---------------3----|--5---------4---------------2--|
E:------1T------------------------|-------1T----------------------|



  (palm mute................................)

E:------------------------------------------------------|
B:------------------------------------------------------|
G:--------------------------------------------3--2------|
D:--------------------------------------------3--2------|
A:--------3--2--------3--2--------3--2------------------|
E:--4--5--------4--5--------4--5--------4--5------------|


 
  (palm mute................................)

E:------------------------------------------------------|
B:------------------------------------------------------|
G:--------------------------------------------1--2------|
D:--------------------------------------------1--2------|
A:--------3--2--------3--2--------3--2------------------|
E:--4--5--------4--5--------4--5--------4--5------------|




  (palm mute................................)

E:------------------------------------------------------|
B:------------------------------------------------------|
G:--------------------------------------------3--2------|
D:--------------------------------------------3--2------|
A:--------3--2--------3--2--------3--2------------------|
E:--4--5--------4--5--------4--5--------4--5------------|



  (palm mute................................)

E:-----------------------------------------------|
B:-----------------------------------------------|
G:-----------------------------------------------|
D:-----------------------------------------------|
A:--------3--2--------3--2--------3--2-----------|
E:--4--5--------4--5--------4--5--------4--5-----|


  
  (palm mute.........................................)
E:-------------------------------------------------------|
B:-------------------------------------------------------|
G:-------------------------------------------------------|
D:-----------------------------------------------------2-|
A:-----------------------------------------------------2-|
E:--3-3-3-3-3-3-3-3-3-3-3-3-3-3-3-3-3-3-3-3-3-3-3-3-3--0-|

    (end intro)








E:------------------|
B:------------------|
G:------4--(4)------|
D:--4-3-4--(4)------|
A:--4-3-2--(2)------|
E:--2-1-------------|




   (verse: Fate silent warriors sleeping souls will arise...)


E:------------------------------------------------------|
B:------------------------------------------------------|
G:------------------------------------------------------|
D:------------------------------------------4-3-6-------|
A:------------2------------------------2----4-3-6-------|
E:--1T---4---------4--3--0--1T----4---------2-1-4-------|

E:------------------------------------------------------|
B:------------------------------------------------------|
G:----------------------------------------------4-------|
D:------------------------------------------4-3-4-------|
A:------------2------------------------2----4-3-2-------|
E:--1T---4---------4--3--0--1T----4---------2-1---------|




   (Memories can't ignore.....)                   (repeat)

                          (palm mute......................)

E:--------------------------------------------------------|
B:--------------------------------------------------------|
G:-------------------4-----3------------------------------|
D:--6--------5-------4-----3------------------------------|
A:--6--------5-------2-----1-1-1-1-1-1-1-1-1-1-1-1-1-1-1--|
E:--4--------3--------------------------------------------|









E:------------------------------------------------------|
B:------------------------------------------------------|
G:----------------------------------------------4-------|
D:------------------------------------------4-3-4-------|
A:------------2------------------------2----4-3-2-------|
E:--1T---4---------4--3--0--1T----4---------2-1---------|


(verse 2:target assassinate, time of your life has expired...)


E:------------------------------------------------------|
B:------------------------------------------------------|
G:------------------------------------------------------|
D:------------------------------------------4-3-6-------|
A:------------2------------------------2----4-3-6-------|
E:--1T---4---------4--3--0--1T----4---------2-1-4-------|

E:------------------------------------------------------|
B:------------------------------------------------------|
G:----------------------------------------------4-------|
D:------------------------------------------4-3-4-------|
A:------------2------------------------2----4-3-2-------|
E:--1T---4---------4--3--0--1T----4---------2-1---------|



   (riff change)
  (verse: Violence inflicting of pain......)

E:------------------------------------------------------|
B:------------------------------------------------------|
G:------------------------------------------------------|
D:------------------------------------------7-6---------|
A:------------5------------------------5----7-6-8-------|
E:--4T---7---------5--4--3--4T----7---------5-4-7-------|


E:------------------------------------------------------|
B:------------------------------------------------------|
G:------------------------------------------------------|
D:------------------------------------------7-6-9-------|
A:------------5------------------------5----7-6-9-------|
E:--4T---7---------5--4--3--4T----7---------5-4-7-------|





   (Memories can't ignore.....)                   (repeat)

                          (palm mute......................)

E:--------------------------------------------------------|
B:--------------------------------------------------------|
G:-------------------4-----3------------------------------|
D:--6--------5-------4-----3------------------------------|
A:--6--------5-------2-----1-1-1-1-1-1-1-1-1-1-1-1-1-1-1--|
E:--4--------3--------------------------------------------|


  (riff while solo 1 playes)               (p.m..)
[ Tab from: http://www.guitartabs.cc/tabs/s/slayer/ghosts_of_war_tab.html ]
E:------------------------------------------------------|
B:------------------------------------------------------|
G:------------------------------------------------------|
D:--------------------8--7-------------------------5----|
A:--------------------8--7-------------------------5----|
E:--2T----3----2T-----6--5--2T----3----2T----5--2--3----|




  (riff while solo 2 plays, main riff)

E:------------------------------------------------------|
B:------------------------------------------------------|
G:------------------------------------------------------|
D:------------------------------------------4-3-6-------|
A:------------2------------------------2----4-3-6-------|
E:--1T---4---------4--3--0--1T----4---------2-1-4-------|

E:------------------------------------------------------|
B:------------------------------------------------------|
G:----------------------------------------------3-------|
D:------------------------------------------4-3-3-------|
A:------------2------------------------2----4-3-1-------|
E:--1T---4---------4--3--0--1T----4---------2-1---------|



   

E:------------------------------------------------------|
B:------------------------------------------------------|
G:---2---------------------------------------(2)--------|
D:---2---------------------------------------(2)--------|
A:---0---------------------------------------(0)--------|
E:------------------------------------------------------|




  (alternating guirtars play at first)
  
  (pm..)       (.)             (.)       (...)

E:------------------------------------------------------|
B:------------------------------------------------------|
G:------------------------------------------------------|
D:-------6--7-------7--6-----------7--6---------10---9--|
A:--0-----------0---------8--7--8--------7--8-----------|
E:------------------------------------------------------|



  (pm..)       (.)             (.)       (...)

E:------------------------------------------------------|
B:------------------------------------------------------|
G:----------------------------------------------10---9--|
D:-------6--7-------7--6-----------7--6-----------------|
A:--0-----------0---------8--7--8--------7--8-----------|
E:------------------------------------------------------|



      (rytham guitar)

E:---------------------------------------------------|
B:---------------------------------------------------|
G:---------------------------------------------------|
D:----7--------10--6------10--7------10-----6--------|
A:----7--------10--6------10--7------10-----6--------|
E:----5--------8---4------8---5------8------4--------|



E:---------------------------------------------------|
B:---10--------13--9------13--10-----13-----9--------|
G:---9---------12--8------12--9------12-----8--------|
D:---7---------10--6------10--7------10-----6--------|
A:---------------------------------------------------|
E:---------------------------------------------------|





  (palm mute,down stroke lower notes)(solo)

E:------------------------------------------------------------|
B:------------------------------------------------------------|
G:------------------------------------------------------------|
D:----7-----------------------10--6---------------------------|
A:----7-----------------------10--6---------------------------|
E:----5-5-5-5-5-5-5-5-5-5-5-5-8---4--4-4-4-4-4-4-4-4-4-4-4-4--|


E:------------------------------------------------------------|
B:------------------------------------------------------------|
G:------------------------------------------------------------|
D:----10--7-----------------------------10-----6--------(6)---|
A:----10--7-----------------------------10-----6--------(6)---|
E:----8---5--5-5-5-5-5-5-5-5-5-5-5-5----8------4--------(4)---|


E:------------------------------------------------------|
B:------------------------------------------------------|
G:------------------------------------------------------|
D:--2--------------------------------------(2)----------|
A:--2--------------------------------------(2)----------|
E:--0--------------------------------------(0)----------|







   (pm.....................................)
              (repeat)


E:------------------------------------------|
B:------------------------------------------|
G:------------------------------------------|
D:------------------------------------------|
A:------------------------------------------|
E:--0-0-0------0--0------0-0-0------0--0----|





  (verse : I deal in pain........)

              (pm....................................)

E:---------------------------------------------------|
B:---------------------------------------------------|
G:---------------------------------------------------|
D:--4----5--3----------------------------------------|
A:--4----5--3----------------------------------------|
E:--2----3--1--0-0-0----0--0----0-0-0----0--0--------|



  
  (d=down stroke    u=up stroke)
  (d.u.d....d..d.....d.u.d....d..d....)
  (pm.................................)
             
E:------------------------------------|
B:------------------------------------|
G:------------------------------------|
D:------------------------------------|
A:------------------------------------|
E:--0-0-0----0--0----0-0-0----0--0----|




 
  (pm..)       (.)             (.)       (...)

E:------------------------------------------------------|
B:------------------------------------------------------|
G:------------------------------------------------------|
D:------------------------------------------------------|
A:-------6--7-------7--6-----------7--6---------10---9--|
E:--0-----------0---------8--7--8--------7--8-----------|


  (pm..)       (.)             (.)       (...)

E:------------------------------------------------------|
B:------------------------------------------------------|
G:------------------------------------------------------|
D:----------------------------------------------10---9--|
A:-------6--7-------7--6-----------7--6-----------------|
E:--0-----------0---------8--7--8--------7--8-----------|





 (Rise ghosts of war)


E:-----------------|
B:-----------------|
G:-----------------|
D:--4----5--3--2---|
A:--4----5--3--2---|
E:--2----3--1--0---|




 Ghosts Of War

[Lyrics: King; Music: Hanneman, King]

Fate silent warriors sleeping souls will arise.
Once forgotten soldiers come to life.
Fallen mercenary, dormancy is done,
Not content with wars we never won.

Memories can't ignore
Anguish of before
Satisfy the scorn.
Rise ghosts of war.

Target assassinate, time of your life has expired.
Hatred victimize, gaze in their eyes as they die.
Violence inflicting of pain, savage morticians deny
Drive the salt in the wound, arouse the subconscious to lie.

(Memories can't ignore
Anguish of before
Satisfy the scorn.
Rise ghosts of war.)

[LEADS: HANNEMAN, KING, HANNEMAN]

I deal in pain.
All life I drain.
I dominate.
I seal your fate.
I deal in pain.
All life I drain.
Memories can't ignore,
Rise ghost of war.






Comments